StatTrack
web space | free website | Business Hosting | Free Website Submission | shopping cart | php hosting
Ringfinger
Keyboard intro arranged for guitar:

E-|----------------------------------------------------------------|
B-|----------------------------------------------------------------|
G-|----------------------------------------------------------------|
D-|---10-10---x-10-10---x-10-10---x-10-10---x-10-10----------------|
A-|----------------------------------------------------------------|
E-|-8--------------------------------------8-----------------------|

E-|----------------------------------------------------------------|
B-|----------------------------------------------------------------|
G-|----------------------------------------------------------------|
D-|-7---x-7-7---x-8---x-8-8---x------------------------------------|
A-|--------------------------8---8-6-8-6---------------------------|
E-|-----------------------------8-8-8------------------------------|

Super distorted interlude riff:
E-|-----------------------------------|--------------------------------|
B-|-----------------------------------|--------------------------------|
G-|-5---5---x-5-5-5-x---------x-x-x-x-|-5---5---x-5-5-5-x--------------|
D-|-5---5---x-5-5-5-x---------x-x-x-x-|-5---5---x-5-5-5-x--------------|
A-|-3---3---x-3-3-3-x---------x-x-x-x-|-3---3---x-3-3-3-x--------------|
E-|-----------------------------------|--------------------------------|

Awesome super-distorted 2nd interlude riff:
E-|----------------------|------------------------|---------------------------|
B-|----------------------|------------------------|---------------------------|
G-|-10-hb-r-8-10---10-x--|-8---5---3--3-5---10-x--|-8---5---3--3-5---10-x-----|
D-|-10-hb-r-8-10---10-x--|-8---5---3--3-5---10-x--|-8---5---3--3-5---10-x-----|
A-|----------------------|------------------------|---------------------------|
E-|----------------------|------------------------|---------------------------|

E-|-------------------------|--------------------------------------|
B-|-------------------------|--------------------------------------|
G-|-8---5---3--3-5---10-x-8-|-then-repeat--------------------------|
D-|-8---5---3--3-5---10-x-8-|--------------------------------------|
A-|-------------------------|--------------------------------------|
E-|-------------------------|--------------------------------------|

Outro bassline (Drop D tuning):

E-|---------------------|------------------------------|---------------------|
B-|---------------------|------------------------------|---------------------|
G-|---------------------|------------------------------|---------------------|
D-|---------------------|------------------------------|-repeat-to-end-------|
A-|-3-3-3-3-------------|-3-3-3-3----------------6-----|---------------------|
E-|----------1-1-1--3-3-|----------1-1-1--3-3--8---8---|---------------------|



Back