StatTrack
web space | free website | Web Hosting | Free Website Submission | shopping cart | php hosting



Date Hot Girls

Click Here!





Save Your Money

Click Here!





Piggy (Nothing Can Stop Me Now)
Short Intro: Guitar:
G|---------------|
D|--14-----------|
A|-(12)-----14---|
E|---------(12)--|

Bassline: Verse:
A|------------------------|
D|-0-0---------------0-0--|

0:32: Guitar:
G|------------------------------------------------|
D|-13-----14----16-----14------13-----14-----14---|
A|----------------14------------------------------|
E|------------------------------------------------|

Chorus: Distortion:
E|------------------------------------|
B|------------------------------------|
G|-2-4-4-4-7-7-7-7-2-2-2-2------------|
D|-2-4-4-4-7-7-7-7-2-2-2-2-5-5-5-5----|
A|-0-2-2-2-5-5-5-5-0-0-0-0-5-5-5-5----|
E|-------------------------3-3-3-3----|

Second Verse [A]:
G|------------------------------------------------|
D|-13-----14----14-----13-----13----11----14----14|
A|----------------12------------------------------|
E|------------------------------------------------|

Second Verse [B]:
G|---------------------|----------------------------------|
D|-16--16-16-16-16-----|-14--14-14-14-14--13--13-13-13-13-|
A|-14--14-14-14-14-----|-12--12-12-12-12--11--11-11-11-11-|
E|---------------------|----------------------------------|
The first five notes are played twice.

Then repeat the chorus which leads to a dance routine.

The Last Note:
D|--13~~~~~~~~~~~~|

dex - http://www.angelfire.com/biz4/KarmaCop/nin.html



Back