StatTrack
web space | free website | Business Hosting | Free Website Submission | shopping cart | php hosting
nin-Piggy bass and guitar tab Piggy
tuning: standard
tabbed by daria - daria6666@hotmail.com

Verse:
|--------------------------------|
|--------------------------------|
|-----5-----------5--------8/7---|
|--7-----5-4---7-----5-4---------|

Chorus:
|----------------------------------------------------
|----------------------------------------------------
|--0--2-2-2--0--2-2-2--0--2-2-2--0--2-2-2--3-3--5-5--
|----------------------------------------------------

|--------------------------------------------------|
|--------------------------------------------------|
|--0--2-2-2--0--2-2-2--0--2-2-2--0--2-2-2--0--2-3--|
|--------------------------------------------------|

Piano arr. for guitar:
|--17----17--15--14----------|
|-----10-------------17--16--|
|----------------------------|
|----------------------------|
|----------------------------|
|----------------------------|

Outro bass:
|---------------------------------------------------|
|---------------------------------------------------|
|-0--2-2-2------------7--7-7-7------------5-5--4-4--|
|-----------3--3-3-3------------5--5-5-5------------|



Back