Physical
tuning: standard
tabbed by daria - daria6666@hotmail.com

b=bend
p.m.=palm mute
\=slide

Intro: guitar 1: distortion
|----------------------|
|----------------------|
|----------------------|
|----------------------| x4
|--2-2-2-2-2-2-2-2-----|
|--0-0-0-0-0-0-0-0-----|
p.m.--------------

|--------------------------------------|
|--------------------------------------|
|--------------------------------------|
|--------------------------------------|
|------2-2-2-2-2-2-2-2--2-2-2-2-2-2-2--|
|--12\-0-0-0-0-0-0-0-0--0-0-0-0-3-0-3--|

Verse: guitar 1: distortion
|----------------------|
|----------------------|
|----------------------|
|----------------------|
|--2-2-2-2-2-2-2-2-----|
|--0-0-0-0-0-0-0-0-----|
p.m.--------------

1:14: guitar 2: distortion
|---------------------------------------------|
|---------------------------------------------|
|-------7-----7\--------------------7-----7\--|
|--2-2--7--2--7\---2-2-2-2-2-2-2-2--7--2--7\--|
|--2-2--5--2--5\---2-2-2-2-2-2-2-2--5--2--5\--|
|--0-0-----0-------0-0-0-0-0-0-0-0-----0------|

Chorus: distortion
|---------------------------------------------|
|---------------------------------------------|
|-----------------------------7-7-7--9--------|
|--7-7-7-7-7-7-7-7-7-7-7-7-7--7-7-7--9--------|
|--7-7-7-7-7-7-7-7-7-7-7-7-7--5-5-5--7---6b---|
|--5-5-5-5-5-5-5-5-5-5-5-5-5-------------4b---|

Preverse: guitar 1: distortion
|----------------------|
|----------------------|
|----------------------|
|----------------------|
|--2-2-2-2-2-2-2-2-----|
|--0-0-0-0-0-0-0-0-----|
p.m.--------------

Verse: guitar 1: distortion
|----------------------|
|----------------------|
|----------------------|
|----------------------|
|--2-2-2-2-2-2-2-2-----|
|--0-0-0-0-0-0-0-0-----|
p.m.--------------

guitar 2: distortion:
|---------------------------------------------|
|---------------------------------------------|
|-------7-----7\--------------------7-----7\--|
|--2-2--7--2--7\---2-2-2-2-2-2-2-2--7--2--7\--|
|--2-2--5--2--5\---2-2-2-2-2-2-2-2--5--2--5\--|
|--0-0-----0-------0-0-0-0-0-0-0-0-----0------|

guitar 3: distortion:
|------------------|
|------------------|
|------------------|
|--7--8--11\10--8--|
|--7--8--11\10--8--|
|--5--6---9\-8--6--|

Chorus: distortion
|---------------------------------------------|
|---------------------------------------------|
|-----------------------------7-7-7--9--------|
|--7-7-7-7-7-7-7-7-7-7-7-7-7--7-7-7--9--------|
|--7-7-7-7-7-7-7-7-7-7-7-7-7--5-5-5--7---6b---|
|--5-5-5-5-5-5-5-5-5-5-5-5-5-------------4b---|

Ending:
|----------------------------------------------|
|----------------------------------------------|
|----------9-------7------------------------9--|
|-2--------9-------7-------7---5---2--------9--|
|-2--------7-------5-------7---5---2--------7--|
|-0------------------------5---3---0-----------|



back