StatTrack
web space | website hosting | Web Hosting | Free Website Submission | shopping cart | php hosting
Nine Inch Nails - Mr. Selfdestruct
    Let me warn you, this TAB is not quite as complete as I try to get my NIN tabs, but it contains all the guitar and main synth parts of the song that I could hear in the wall of noise:) Tune your bottom string down to D (it's not really neccessarry, you can just play the D power chord straight, but the extra bottom string sounds more full, the bass must be tuned down though)
    E-mail me with questions/comments/requests...
    MOMMY
    3-5405@tnet.bt.quake.com

    Verse riff:
E-|---------------------------------------------------------------------------|
B-|---------------------------------------------------------------------------|
G-|---------------------------------------------------------------------------|
D-|-7--7-7-7--7-7-7--7-7-7--7-7-7--7-7-7--7-7-7s8s10--------------------------|
A-|-5--5-5-5--5-5-5--5-5-5--5-5-5--5-5-5--5-5-5s6s8---------------------------|
E-|-0--0-0-0--0-0-0--0-0-0--0-0-0--0-0-0--0-0---------------------------------|

    Chorus riff:   Synth end of chorus:
E-|-------------------|---------------------------------|---------------------|
B-|-------------------|---------------------------------|-15s13s15s13---------|
G-|-------------------|---------------------------------|---------------------|
D-|-10---11--12s13s14-|-7-7-7-7-7-7-7-7-7-7-7-7-7-7-7-7-|---------------------|
A-|-8----9---10s11s12-|-5-5-5-5-5-5-5-5-5-5-5-5-5-5-5-5-|---------------------|
E-|-------------------|-0-0-0-0-0-0-0-0-0-0-0-0-0-0-0-0-|---------------------|


   Interlude synth line:  Interlude bassline:
E-|----------------------|----------------------------------------------------|
B-|------10--------------|----------------------------------------------------|
G-|-7--------7--------5--|----------------------------------------------------|
D-|----------------------|----------------------------------------------------|
A-|----------------------|-1-1-1-1-2-2-2-2-3-3-3-5---5------------------------|
E-|----------------------|-----------------------------0-0--------------------|

---------------------------------------------------------------------
This TAB was made exclusively for Life After Death BBS (504)-885-3327
---------------------------------------------------------------------



Back