StatTrack
web space | free hosting | Web Hosting | Free Website Submission | shopping cart | php hosting
March Of The Pigs
------------------------
------------------------
------------------------
------------------------
-------------5 5 6 6 8--
------5 6 8-------------
Play 3 times then:

-------5 5 6 8 10 --
-5 6 8--------------

Play whole thing twice, then:

------------------
------------------
--7 7 7 7---------
--7 7 7 7 5 3-----
--5 5 5 5 5 3 3---
--------------4---

Play 3 times then:

----------------------
----------------------
--7 7 7 7-------------
--7 7 7 7 5 3 2 3 5 6-
--5 5 5 5 5 3 2 3 5 6-
----------------------

Repeat until this part:

a 5555555555555555------------------------------------------------
e ----------------444444444444444433333333333333331111111111111111

Repeat 3 1/2 times, then accoustic:

------------
--3 5 --5-7-
--3 5 -5--7-
--3 5 5---7-
------------
------------

Repeat everything but intro again. Second accoustic part:

---------------------------------------------------------
--3 5 --5-7-----------5 --5-7---3-5-7---------------13---
--3 5 -5--7-----3-----5 -5--7---3-5-7-------------10-----
--3 5 5---7---3-3-3-3-5 5---7---3-5-7------------10------
--------------------1-----------1-3-5--5-7-9----9--------
---------------------------------------6-8-10-10---------

Hope you can decipher it!
Turbopunk



Back