web space | website hosting | Business Hosting | Free Website Submission | shopping cart | php hosting
Last
tuning: standard
tabbed by daria - daria6666@hotmail.com

p.m.=palm mute
p=pull-off

Verse 1: guitar 1:
|------------------------------------------------|
|------------------------------------------------|
|----------------8-8-----------------------------|
|--7-7--5/7-5/7--6-6--7-7--5/7--7-7-7-7-7-7-7-7--|
|--5-5--3/5-3/5-------5-5--3/5--5-5-5-5-5-5-5-5--|
|------------------------------------------------|
                                p.m.-----------

Chorus:
|------------------|
|------------------|
|------------------|
|--5-6-7-----------|
|--3-5-5--5-5-6-7--|
|---------3-3-4-5--|

|--------------------------------------------------------|
|--------------------------------------------------------|
|--------------------------------------------------------|
|-------------------------3-3----------------------------|
|--3-5-5-3--5p3---3-5-5--------3-5-5-3--5p3---3----------|
|---------------5-------5-------------------5---5-4-3-1--|

Verse 2: guitar 1: (play guitars 1 and 2 together)
|------------------------------------------------|
|------------------------------------------------|
|----------------8-8-----------------------------|
|--7-7--5/7-5/7--6-6--7-7--5/7--7-7-7-7-7-7-7-7--|
|--5-5--3/5-3/5-------5-5--3/5--5-5-5-5-5-5-5-5--|
|------------------------------------------------|
                                p.m.-----------
guitar 2:
|-------------------------------------------------|
|-------------------------------------------------|
|-------------------------------------------------|
|-------------------------------0-0--1--0-0--2/3--|
|-------------------------------------------------|
|-------------------------------------------------|
                                p.m.    p.m.

Chorus:
|------------------|
|------------------|
|------------------|
|--5-6-7-----------|
|--3-4-5--5-5-6-7--|
|---------3-3-4-5--|

Verse 3: p.m. single notes
|-------------------------------|
|-------------------------------|
|-------------------------------|
|-----5----6----7----8----9/10--|
|-----3----4----5----6----7/8---|
|--0-----0----0----0----0-------|

Outro:
|-------------------------------|
|-------------------------------|
|----------------8-8------------|
|--7-7--5/7-5/7--6-6--7-7--5/7--|
|--5-5--3/5-3/5-------5-5--3/5--|
|-------------------------------|



back