web space | free hosting | Business Web Hosting | Free Website Submission | shopping cart | php hosting
Hurt
tuning: standard
tabbed by daria - daria6666@hotmail.com

Verse: guitar 1 - acoustic:
|----------------------------10--------------------------|
|------------------5---------------------------5---------|
|-----10--7------7--------7--------10--7-----7--------7--|
|------9-------7--------9-----------9------7--------9----|
|---9--------5--------7----------9-------5--------7------|
|-7-----------------------------7------------------------|

Chorus: guitar 1 - acoustic:
|--0-0-0-0-2-2-2-2-3-3-3-3-2-2-2-2--|
|--2-2-2-2-3-3-3-3-3-3-3-3-3-3-3-3--|
|--2-2-2-2-4-4-4-4-0-0-0-0-2-2-2-2--|
|--2-2-2-2-4-4-4-4-0-0-0-0-0-0-0-0--|
|--0-0-0-0-2-2-2-2-2-2-2-2----------|
|--0-0-0-0-2-2-2-2-3-3-3-3----------|

guitar 2 - a really cool riff done on the piano: e|--12-12-12-12-12--10-9-10--10-10-10-10-10--9-7-9--9-9-9-9-9--7-5-7--
B|--------------------------------------------------------------------

e|--5-5-5-5-7-9-10--12-12-12-12-12--10-9-10--10-10-10-10-10--9-7-9--
B|------------------------------------------------------------------

e|--9-9-9-9-9--7-5-7--5-5-5-5-5-------|
B|------------------------------5--3--|

Verse 2: guitar 1- acoustic:
|----------------------------10--------------------------|
|------------------5---------------------------5---------|
|-----10--7------7--------7--------10--7-----7--------7--|
|------9-------7--------9-----------9------7--------9----|
|---9--------5--------7----------9-------5--------7------|
|-7-----------------------------7------------------------|

Chorus: guitar 1 - acoustic:
|--0-0-0-0-2-2-2-2-3-3-3-3-2-2-2-2--|
|--2-2-2-2-3-3-3-3-3-3-3-3-3-3-3-3--|
|--2-2-2-2-4-4-4-4-0-0-0-0-2-2-2-2--|
|--2-2-2-2-4-4-4-4-0-0-0-0-0-0-0-0--|
|--0-0-0-0-2-2-2-2-2-2-2-2----------|
|--0-0-0-0-2-2-2-2-3-3-3-3----------|

guitar 2 - a really cool riff done on the piano:
e|--12-12-12-12-12--10-9-10--10-10-10-10-10--9-7-9--9-9-9-9-9--7-5-7--
B|--------------------------------------------------------------------

e|--5-5-5-5-7-9-10--12-12-12-12-12-14-10--10-10-10-10-10--9-7-9--
B|---------------------------------------------------------------

e|--9-9-9-9-9--7-5-7--5-5-5-5-5--7-9-10---|
B|----------------------------------------|

guitar 3 - electric: during last chorus and outro:
|---------------------|
|---------------------|
|---------------------|
|--7-7-7-7-7-7-7-7-7--| just keep repeating this over until the blaring
|--7-7-7-7-7-7-7-7-7--| guitar at the end...
|--5-5-5-5-5-5-5-5-5--|

...which is this:
|-----------|
|-----------|
|-----------|
|--7--3--9--|
|--7--3--9--|
|--5--1--7--|

Bass:
Prechorus:
G|---------------------------------------|
D|---------------------------------------|
A|------------------------------5-5-5-5--|
E|--5-5-5-5--7-7-7-7--3-3-3-3------------|

Chorus:
G|-----------------------------------------------------
D|-----------------------------------------------------
A|-----------------------------------------------------
E|--5-5-5-5-5-5-5-5--7-7-7-7-7-7-7-7--3-3-3-3-3-3-3-3--

G|-------------------|
D|-------------------|
A|-------------------|
E|--5-5-5-5-5-5-5-5--|

End:
G|-------------|
D|-------------|
A|-------------|
E|--5---1---7--|



back