StatTrack
web space | free website | Business Hosting Services | Free Website Submission | shopping cart | php hosting
nin-Help Me I Am In Hell guitar tab Help Me I Am In Hell
tuning: standard
tabbed by daria - daria6666@hotmail.com

|--------------------------------------|
|-----------------------------------9--|
|--------------------------------------|
|-9-9-9-10-10-10-10-10--12--10--12-----|
|-7-7-7--7--7--7--7--7---7---7---7--7--|
|--------------------------------------|

|----------------------------------------|
|----------------------------------------|
|--------------------------------7-------|
|-9-9-9-10-10-10-10-10--7-7-7-6--6-------|
|-7-7-7--7--7--7--7--7--7-7-7-7--7-------|
|----------------------------------------|



Back