StatTrack
web space | free website | Business Hosting Services | Free Website Submission | shopping cart | php hosting
Eraser (Polite)

Guitar 1 (Lead):
G|-10--8-----------10--8--6--8--|
D|---------8--10----------------|
A|------------------------------|
E|------------------------------|

Guitar 2: 0:18:
G|------------------------------------|
D|-15--13--15--11--15--13--11---------|
A|--------------------------------13--|
E|------------------------------------|

Guitar 3: 0:27:
G|-----------------------------------------------------|
D|--------------1--3--1------6--4--1--3--3--1----------|
A|-1--3--4--1-------------1----------------------4--1--|
E|-----------------------------------------------------|

Guitar 3: 0:45:
G|----------------------------------------------|
D|--------------------------------1--3--1-------|
A|--8--6--8--4--1--3--4--1--1--------------1----|
E|----------------------------------------------|
And then the last eight notes from the "0:27" riff...

dex - http://www.angelfire.com/biz4/KarmaCop/nin.html



Back