StatTrack
web space | free hosting | Business Hosting | Free Website Submission | shopping cart | php hosting
Head Like A Hole
G|---------------------------------|
D|--2-----3---0--------------------|
A|------------------0--------------|
D|----2-2---2---2-2---2-2-6-2-0-2--|

this is the general keyboard line transcribed for the bass. though there have been many transcriptions featuring a much simpler bass line, these fail to note the dropped D tuning, and the single low D played towards the end of the riff. if you listen closely, you will notice that this riff is played with many variations throughout the song. feel free to improvise :)

E|--------------------|--------------------------------------------|
B|-(7)--(7)--(7)--(7)-|-7/9--9--9--9--9--9--9--9--9--10-10-X--X--7--7-|
G|--7--7---7---(7)----|-7/9--9--9--9--9--9--9--9--9--10-10-X--X--7--7-|
D|--7--7---7---(7)----|-7/9--9--9--9--9--9--9--9--9--10-10-X--X--7--7-|
A|--5--5---5---(5)----|-5/7--7--7--7--7--7--7--7--7--8--8--X--X--5--5-|
E|--------------------|--------------------------------------------|
head like a hole....       black as your soul...

E|-----------------------------------------------|
B|-7/9--9--9--9--9--9--9--9--9--10-10-X--X--7--7-|
G|-7/9--9--9--9--9--9--9--9--9--10-10-X--X--7--7-|
D|-7/9--9--9--9--9--9--9--9--9--10-10-X--X--7--7-|
A|-5/7--7--7--7--7--7--7--7--7--8--8--X--X--5--5-|
E|-----------------------------------------------|
i'd rath - er die...


E|-9--9--9--9--9--9--9--9--9--9--9--9--9--9--9--9-|
B|-10-10-10-10-10-10-10-10-10-10-10-10-10-10-10-10|
G|-9--9--9--9--9--9--9--9--9--9--9--9--9--9--9--9-|
D|-7--7--7--7--7--7--7--7--7--7--7--7--7--7--7--7-|
A|------------------------------------------------|
E|------------------------------------------------|
than give you con - trol

E|-9--9--9--9--9--9--9--9--9--9--9--9--9--9--9--9-|
B|-10-10-10-10-10-10-10-10-10-10-10-10-10-10-10-10|
G|-9--9--9--9--9--9--9--9--9--9--9--9--9--9--9--9-|
D|-7--7--7--7--7--7--7--7--7--7--7--7--7--7--7--7-|
A|------------------------------------------------|
E|------------------------------------------------|
head like a hole...
(sing first time only)

this entire chorus is played twice all the way through. it is played the whole time with very fast and heavy strumming. on the last two bars (both entirly in A) trent (or robin finck) randomly mutes the chords through- out the chorus. (once again, feel free to improvise)

transcribed by: darkelf@netcom.com


back