StatTrack
web space | free hosting | Business Hosting Services | Free Website Submission | shopping cart | php hosting
Happiness In Slavery
tuning: drop d (low to high: D A D G B e)
tabbed by daria - daria6666@hotmail.com

b=bend
r=release

Bass:
|--------------------------|
|--------------------------|
|--------------------10-8--|
|--3-5-5-6--3-5-6-5--------|

:48 guitar 1:
|-------------|
|-------------|
|-------------|
|--8--9--8----|
|--8--9--8----|
|--8--9--8----|

1:08
|--------------------------------|
|--------------------------------|
|--------------------------------|
|--------------------------------| x4
|-3-3-3-4-4-5-5-5-6-6-6-7-7-8-8--|
|-3-3-3-4-4-5-5-5-6-6-6-7-7-8-8--|

Bass:
|--------------------------|
|--------------------------|
|--------------------10-8--|
|--3-5-5-6--3-5-6-5--------|

1:52: guitar 1:
|-------------|
|-------------|
|-------------|
|--8--9--8----|
|--8--9--8----|
|--8--9--8----|

guitar 2:
|--------------------|
|--------------------|
|------------5b------|
|--3--3b4r3------3---|
|--------------------|
|--------------------|

Bass: 3:12
|--------------------------|
|--------------------------|
|--------------------10-8--|
|--3-5-5-6--3-5-6-5--------|

3:12: guitar 1:
|-------------|
|-------------|
|-------------|
|--8--9--8----|
|--8--9--8----|
|--8--9--8----|

3:44 guitar 2
|--------------------|
|--------------------|
|------------5b------|
|--3--3b4r3------3---|
|--------------------|
|--------------------|

|---------------|
|-----6---------|
|--5--3--6--5---|
|--3-----4--3---|
|---------------|
|---------------|



back