StatTrack
web space | free website | Business Hosting Services | Free Website Submission | shopping cart | php hosting
nin-Gave Up guitar tab Gave Up

John leonard johnleonard64@hotmail.com

guitar riff 1 (behind verses)
e------------------------------------------------------------------|
b------------------------------------------------------------------|
g------------------------------------------------------------------|
d--2---4-----------------------------------------------------------|
a--2---4-----------------------------------------------------------|
E--0---2-----------------------------------------------------------|

chorus riff 1 (at "it took you")
e--------------------------------------------------------------------|
b--------------------------------------------------------------------|
g.-9--\-------------------5-4-2-----------------5\4-----------------.|
d.-9--\--7--\--4----------5-4-2--4--------------5\4-----------------.|
a--7--\--7--\--4----------3-2-0--4--------------3\2------------------|
E--------5--\--2-----------------2-----------------------------------|

chorus riff 2 (at "smashed up my sanity...")
e------------------------------------------------------------------|
b------------------------------------------------------------------|
g.--9----11\------------------------5-4-2----------------5\4-----.|
d.--9----11\----7-----9--\--4-------5-4-2--4-------------5\4-----.|
a---7-----9\----7-----9--\--4-------3-2-0--4-------------3\2------|
E---------------5-----7--\--2--------------2----------------------|


Back