StatTrack
web space | website hosting | Business Web Hosting | Free Website Submission | shopping cart | php hosting
Eraser (Denial; Realization)
Main Riff:Palm Mute every two seconds:
G|-------------------|
D|--8-8-8-8-8-8-8-8--|
A|--8-8-8-8-8-8-8-8--|
E|--6-6-6-6-6-6-6-6--|

1:03:
G|-------------------|
D|-------------------|
A|-9-9-9---R---9-9-9-|
E|-------------------|

dex - http://www.angelfire.com/biz4/KarmaCop/nin.html



Back