web space | free website | Business WebSite Hosting | Free Website Submission | shopping cart | php hosting
Dead Souls
tuning: standard
tabbed by daria - daria6666@hotmail.com

Intor: 0:26
|----------------------------------------------------------------|
|----------------------------------------------------------------|
|----------------------------------------------------------------|
|---------------------------3---3---5---3-3--3---3--5-5----3--3--|
|--1-3--------------------1---1---1---1--------1---------1-------|
|------1-1-1-1--3--1-1-1-----------------------------------------|

0:58
|-------------------------------------------------------|
|--6-6--4-4----------6-6--4-4----------6-6--4-4---------|
|--5-5--3-3--3-3--5--5-5--3-3--3-3--5--5-5--3-3--3-3--5-|
|--3-3--1-1--3-3--5--3-3--1-1--3-3--5--3-3--1-1--3-3--5-|
|------------1-1--3------------1-1--3------------1-1--3-|
|-------------------------------------------------------|

Chorus: 1:36
|-------------------------------------------------------|
|--6-6--4-4----------6-6--4-4----------6-6--4-4---------|
|--5-5--3-3--3-3--5--5-5--3-3--3-3--5--5-5--3-3--3-3--5-|
|--3-3--1-1--3-3--5--3-3--1-1--3-3--5--3-3--1-1--3-3--5-|
|------------1-1--3------------1-1--3------------1-1--3-|
|-------------------------------------------------------|

Verse 2: 1:56
|----------------|
|----------------|
|--3--3---5--5---|
|--3--3---5--5---|
|----------------|
|----------------|

Chorus: 2:24
|-------------------------------------------------------|
|--6-6--4-4----------6-6--4-4----------6-6--4-4---------|
|--5-5--3-3--3-3--5--5-5--3-3--3-3--5--5-5--3-3--3-3--5-|
|--3-3--1-1--3-3--5--3-3--1-1--3-3--5--3-3--1-1--3-3--5-|
|------------1-1--3------------1-1--3------------1-1--3-|
|-------------------------------------------------------|

Chorus once again: 3:21
|-------------------------------------------------------|
|--6-6--4-4----------6-6--4-4----------6-6--4-4---------|
|--5-5--3-3--3-3--5--5-5--3-3--3-3--5--5-5--3-3--3-3--5-| x2
|--3-3--1-1--3-3--5--3-3--1-1--3-3--5--3-3--1-1--3-3--5-|
|------------1-1--3------------1-1--3------------1-1--3-|
|-------------------------------------------------------|

Outro:
|----------------|
|----------------|
|--3--3---5--5---|
|--3--3---5--5---|
|----------------|
|----------------|



Back