Sin
tuning: standard
tabbed by daria - daria6666@hotmail.com

Synth arr. for bass:
|--------------------------------------------------------------------
|--------------------------------------------------------------------
|--------------------------------------------------------------------
|--9-9-9-9-9-9-9-9-10-10-10-10-10-10-10-10-7-7-7-7-7-7-7-7--9-9-9-9--

|-----------------------------------------------------------------
|-----------------------------------------------------------------
|-----------------------------------------------------------------
|--7-7--9-9-9-9-9-9-9-9-10-10-10-10-10-10-10-10-7-7-7-7-7-7-7-7---

|-------------------|
|-------------------|
|-------------------|
|--10-10-10-10-9-9--|

guitar 1: distortion
|-----------------------------------------------------------------
|-----------------------------------------------------------------
|-----------------------------------------------------------------
|--11-11-11-11-11-11-11-11--12-12-12-12--X-X-X-X--9-9-9-9--12-12--
|--11-11-11-11-11-11-11-11--12-12-12-12--X-X-X-X--9-9-9-9--12-12--
|-----------------------------------------------------------------

|----------------------------|
|----------------------------|
|----------------------------|
|--11-11-11-11-11-11-11-11---|
|--11-11-11-11-11-11-11-11---|
|----------------------------|


Back