Leaving Hope
tuning: standard
tabbed by daria - daria6666@hotmail.com

guitar for piano:
|--11-10----------------------------------------11-10----------------
|--------8--8-8-6-11-------8-6-11-------6--8----------8--8-8-6-11----
|---------------------7--8--------7--8-------0--------------------7--
|--------------------------------------------------------------------
|--------------------------------------------------------------------
|--------------------------------------------------------------------

|----------------------------|
|----8-8-6-11-------6--8-----|
|--8-----------7--8-------0--|
|----------------------------|
|----------------------------|
|----------------------------|

1:02: guitar (for this part, on my DOD FX7 guitar processor, i used delay, gate, and distortion...it gets it pretty close to the way it sounds)
|--11---8---X-10-11-10-X-10-11-15---10-11-13-11--11-10-8--X-10-11-10--
|-----8---------------------------------------------------------------
|---------------------------------------------------------------------
|---------------------------------------------------------------------
|---------------------------------------------------------------------
|---------------------------------------------------------------------

|--8--X-10-11-15--|
|-----------------|
|-----------------|
|-----------------|
|-----------------|
|-----------------|

acoustic guitar 2 part: 1:34
|---------------------------------------------------------------|
|-----------------------11-13-11--------------------------------|
|--------12-13-12----------------------12-13-12-----------------|
|--13-12----------13-12----------13-12----------------13--------|
|--------------------------------------------------13----11-10--|
|---------------------------------------------------------------|

2:46 guitar 1:
|-----------------------------|----------------------------------------
|-----------------------------|----------------------------------------
|-----------------------------|--5~~~~~~~~~~~~~7~~~~~~~~~~~~~~8~~~~~~--
|--8-8-8-8-8-8-8-8-8-8-8-8-8--|----------------------------------------
|-----------------------------|----------------------------------------
|-----------------------------|----------------------------------------

|-----------------------------------------------|
|-----------------------------------------------|
|--12~~~~~~~~~~~~~~~~~~~13~~~~~~~~~~~15~~~~~~~~~|
|-----------------------------------------------|
|-----------------------------------------------|
|-----------------------------------------------|

end acoustic guitar 2:
|---------------------------------------------------------------|
|-----------------------11-13-11--------------------------------|
|--------12-13-12----------------------12-13-12-----------------|
|--13-12----------13-12----------13-12----------------13--------|
|--------------------------------------------------13----11-10--|
|---------------------------------------------------------------|



Back