Leaving Hope
tabbed by daria - daria6666@hotmail.com

Beginning
treble clef

           0b 0
  -------------|

  -0b---0b-----|

|--------------|
0    0
|--------------|
|--------------|
|--------------|
|--------------|


|-----------------------------------------------|
  0b
|----0------------------------------------------|
|---------------0b-----------0b-----------------|
|------0--0-0-----------0---------------0-------|
              0          0           0
|--------------------0b------------0b-----------|
                  0            0
--

|-----------------------------------------------|
                                          0
|-----------------------------------------------|
|-----------------------------------------------|
|-----------------------------------------------|
|-----------------------------------------------|


|-----------------------------------------------|
  0b
|----0------------------------------------------|
|---------------0b-----------0b-----------------|
|------0--0-0-----------0-0-------------0-------|
              0             0         0
|--------------------0b------------0b-----------|
                  0              0
--

|-----------------------------------------------|
                                             0
|-----------------------------------------------|
|-----------------------------------------------|
|-----------------------------------------------|
|-----------------------------------------------|

1:02
bass clef
|--------------------------------------------|
|---------------------------------0-0-0-0----|
                           0b 0b
|--------------------------------------------|
       0 0
|----------0b-0b-----------------------------|
0b 0b               0b 0b
|--------------------------------------------|
                0 0



Back