StatTrack
web space | website hosting | Business Hosting | Free Website Submission | shopping cart | php hosting
And All That Could Have Been
tuning: drop d (low to high: D A D G B e)
tabbed by daria - daria6666@hotmail.com

b-bend
r-release

Intro\Verse: (use flange)
|-----------------------------------------------------------------------
|-----------------------------------------------------------------------
|--8--8-8--9\1-3-4-6--8-8-8-8----------8--8-8--9\1-3-4-6--8-8-8-8-8-8-8-
|-----------------------------6-6-6-6-----------------------------------
|-----------------------------------------------------------------------
|-----------------------------------------------------------------------

|-----------|
|-----------|
|--8-8-8-8--|
|-----------|
|-----------|
|-----------|

Verse 2: (use flange)
|-----------------------------------------------------------------------
|-----------------------------------------------------------------------
|--8--8-8--9\1-3-4-6--8-8-8-8----------8--8-8--9\1-3-4-6--8-8-8-8-8-8-8-
|-----------------------------6-6-6-6-----------------------------------
|-----------------------------------------------------------------------
|-----------------------------------------------------------------------

|-----------|
|-----------|
|--8-8-8-8--|
|-----------|
|-----------|
|-----------|

guitar 3:
|-----------|
|-----------|
|-----------|
|--9--8--6--|
|-----------|
|-----------|

Chorus: distortion
guitar 1: guitar 2:
|---------|-------|
|---------|-------|
|---------|---6---|
|----2----|---6---|
|---------|---4---|
|---------|-------|

before solo: guitar 1
|---------|
|---------|
|---------|
|----2----|
|---------|
|---------|

solo: guitar 3: slight distortion
|----------------------------------|
|----------------------------------|
|--6--8-9--8b9r8--6-4--------------|
|-----------------------8b9r8b9r8--|
|----------------------------------|
|----------------------------------|

guitar 4: acoustic: during solo:
|-------|
|-------|
|---6---|
|---6---|
|---4---|
|-------|

Verse: (use flange)
|-----------------------------------------------------------------------
|-----------------------------------------------------------------------
|--8--8-8--9\1-3-4-6--8-8-8-8----------8--8-8--9\1-3-4-6--8-8-8-8-8-8-8-
|-----------------------------6-6-6-6-----------------------------------
|-----------------------------------------------------------------------
|-----------------------------------------------------------------------

|-----------|
|-----------|
|--8-8-8-8--|
|-----------|
|-----------|
|-----------|

guitar 3:
|-----------|
|-----------|
|-----------|
|--9--8--6--|
|-----------|
|-----------|

Outro: distortion
guitar 1:  guitar 2:
|---------|-------|
|----5----|-------|
|---------|---6---|
|----2----|---6---|
|----*----|---4---|
|---------|-------|
*=pick through



Back