StatTrack
web space | website hosting | Business Web Hosting | Free Website Submission | shopping cart | php hosting
At The Heart Of It All
Bassline:
G|-----------------------|
D|-----------------------|
A|-3~~~~~~~~-------------|
D|--------------1~~~~~~~-|

2 riffs later a clean guitar joins:
G|--------------------------------|
D|--------------9---8~~~~~~-------|
A|--9~~~~~~~----------------------|
E|--------------------------------|

Violin Riff:
E|---------------16~~~~~-------------|
B|--16~~~~~~~--------------15~~~~~~--|
G|-----------------------------------|
D|-----------------------------------|

3:09:
E|-----------------------------------|
B|--------------14~~~~~~-------------|
G|--13---11~~------------------------|
D|----------------------------13~~---|

When everything turns silent:
G|------------------------------------------------|
D|----9-----9-----9-----9-------------------------|
A|-9-----9-----9-----9-----8--6--8--6--8--6--8--6-|
E|---------------------------Moderatly-Slow-------|

dex - http://www.angelfire.com/biz4/KarmaCop/nin.html


Back