StatTrack
web space | free website | Business WebSite Hosting | Free Website Submission | shopping cart | php hosting
Driver Down
tuning: drop d (low to high: D A D G B e)
tabbed by daria - daria6666@hotmail.com

p.m.-palm mute

|---------------------|
|---------------------|
|---------------------|
|---------------------|
|--4/5\4--3--3-3-3-3--|
|--4/5\4--3--3-3-3-3--|
             p.m.---

1:27
|---------------------------|
|---------------------------|
|---------------------------|
|---------------------------|
|--0---0---0---0---0-0-0-0--|
|--0---0---0---0---0-0-0-0--|
                   p.m.--



Back