StatTrack
web space | free website | Business Web Hosting | Free Website Submission | shopping cart | php hosting
Gone, still
tuning: drop d (low to high: D A D G B e)
tabbed by daria - daria6666@hotmail.com

Bass:
|---------------------|
|---------------------|
|-----10--10--10--10--|
|--5------------------|

0:41
|--------------------------------------------------------------
|--------------------------------------------------------------
|-----6--6------10--10-----6--6------10--10-----6--6-----3--3--
|--5---------5----------5---------5----------5--------5--------

|-----------------|
|-----------------|
|-----5--5--5--5--|
|--5--------------|

play till end of song:
|---------------------|
|---------------------|
|-----10--10--10--10--|
|--5------------------|



Back