StatTrack
web space | free website | Business Hosting | Free Website Submission | shopping cart | php hosting
The Art Of Self Destruction, Part One

Bassline:
G|-----------------------|
D|-----------------------|
A|-5------------5--------|
D|-------1-------------1-|


Guitar 1:
G|-----14----------14--|
D|-12------10-12-------|
A|---------------------|
E|---------------------|


Guitar 2 Solo (Distorted):
G|----14-12~~~~~-14-11~~~~~-12~~~~-14--11--9--7--|
D|-12--------------------------------------------|
A|-----------------------------------------------|
E|-----------------------------------------------|


Tremlo:
G|--14--|
D|--12--|
A|------|
E|------|


Second Verse:
G|----------10-------12--------11~~~-12-10--|
D|-11-11-----11-11-----11-11--------------|
A|----------------------------------------|
E|----------------------------------------|



Back