StatTrack
web space | free website | Business Hosting | Free Website Submission | shopping cart | php hosting
Complications of the Flesh
tuning: drop d (low to high: D A D G B e)
tabbed by daria - daria6666@hotmail.com

b=bend

intro: synth
|--------------|
|--------------|
|--10-5-3-0-0--|
|--------------|
|--------------|
|--------------|

Guitar: strum
|------------------|
|------------------|
|--7---5-----------|
|---------5---9----|
|------------------|
|------------------|

1:44
|----------------|
|----------------|
|----------------|
|--5-5---3-3-----|
|--5-5---3-3-----|
|--5-5---3-3-----|

3:50:
|--------------------|
|--------------------|
|-12b--11b--10b--9b--|
|--------------------|
|--------------------|
|--------------------|


Back