StatTrack
web space | free website | Business Web Hosting | Free Website Submission | shopping cart | php hosting
Reptile
tuning: drop d (low to high: D A D G B e)
tabbed by daria - daria6666@hotmail.com

p.m.=palm mute
b=bend

Verse: guitar 1: play a bunch of times
|-----------------------|
|-----------------------|
|-----------------------|
|--0-0-0-0-0-0-0-0-0-0--|
|--0-0-0-0-0-0-0-0-0-0--|
|--0-0-0-0-0-0-0-0-0-0--|
p.m.--------------------

Chorus: guitar 1:
|----------|
|----------|
|----------|
|--3---5---|
|--3---5---|
|--3---5---|

3:06: guitar 2:
|----------------------|
|--9----9--------------|
|--8----8----7----7----|
|------------7----7----|
|----------------------|
|----------------------|

guitar 1:
|-----------------------|
|-----------------------|
|-----------------------|
|--0-0-0-0-0-0-0-0-0-0--|
|--0-0-0-0-0-0-0-0-0-0--|
|--0-0-0-0-0-0-0-0-0-0--|
p.m.--------------------

Verse 2: guitar 1:
|-----------------------|
|-----------------------|
|-----------------------|
|--0-0-0-0-0-0-0-0-0-0--|
|--0-0-0-0-0-0-0-0-0-0--|
|--0-0-0-0-0-0-0-0-0-0--|
p.m.--------------------

guitar 3:
|---------------------|
|---------------------|
|---------------------|
|------3--------------|
|---------1b(1/4)-----|
|--0---------------3--|

Chorus: guitar 1:
|----------|
|----------|
|----------|
|--3---5---|
|--3---5---|
|--3---5---|

5:21
guitar 1:
|-----------------------|
|-----------------------|
|-----------------------|
|--0-0-0-0-0-0-0-0-0-0--|
|--0-0-0-0-0-0-0-0-0-0--|
|--0-0-0-0-0-0-0-0-0-0--|
p.m.--------------------

guitar 2:
|----------------------|
|--9----9--------------|
|--8----8----7----7----|
|------------7----7----|
|----------------------|
|----------------------|

guitar 3:
|---------------------|
|---------------------|
|---------------------|
|------3--------------|
|---------1b(1/4)-----|
|--0---------------3--|

Chorus: guitar 1:
|----------|
|----------|
|----------|
|--3---5---|
|--3---5---|
|--3---5---|



Back