StatTrack
web space | free hosting | Business WebSite Hosting | Free Website Submission | shopping cart | php hosting
nin-The Day The World Went Away (quiet) guitar tab The Day The World Went Away (quiet)
tuning: standard
tabbed by daria - daria6666@hotmail.com

1:00
|-----------------------|
|-----------------------|
|--4-6-7-6--4-6-7-6-----|
|--------------------6--|
|-----------------------|
|-----------------------|

1:30
plucked
|-----------|
|-----------|
|--9-8-6-4--|
|-----------|
|-----------|
|-----------|

2:00
|----------------9---------4--9-----------9--2----------9--|
|-------------9--------2-3-2-----7-----9-----2--2-3-4------|
|--10---------------4------------6-6-7-6-----3------4------|
|--11--11-12-11-----4------------7-----------4------4------|
|--11---------------2------------0-----------4------2------|
|---9----------------------------------------2-------------|

3:40 bassline
|------------------|
|---------9--4-----|
|--4--7---------2--|
|------------------|

4:10
|-------------------|
|-------------------|
|-------------------|
|-------------------|
|-----4-6-7-6-7-9---|
|--0----------------|

4:40 piano
|--------------------------|
|---------12--11-12-11--9--|
|--11--9-------------------|
|--------------------------|
|--------------------------|
|--------------------------|



Back