web space | free hosting | Web Hosting | Free Website Submission | shopping cart | php hosting
FREE WEBHOSTING - SERVETOWN
Godeatgod
tuning: standard (low to high: E A D G B e)
tabbed by daria - daria6666@hotmail.com

/=slide

Intro and verse: guitar 1
|----------------------------------------|
|--6---6----5----5-----------------------|
|----7---7----7----7--4-6-7-6-----6-7-6--|
|------------------------------7---------|
|----------------------------------------|
|----------------------------------------|

1:09: guitar 2
|---------------|--------------|---------|
|---------------|--------------|--6-6-5--|
|--4/5--6--7-7--|--7-7-7--6-6--|---------|
|---------------|--------------|---------|
|---------------|--------------|---------|
|---------------|--------------|---------|

1:24: guitar 1
|-------------------------------------|
|--6---6---5---5----------------------|
|----7---7---7---7--4-6-7-6----6-7-6--|
|----------------------------7--------|
|-------------------------------------|
|-------------------------------------|

1:52 guitar 2
|---------------|--------------|---------|
|---------------|--------------|--6-6-5--|
|--4/5--6--7-7--|--7-7-7--6-6--|---------|
|---------------|--------------|---------|
|---------------|--------------|---------|
|---------------|--------------|---------|


Back