web space | free hosting | Business Web Hosting | Free Website Submission | shopping cart | php hosting


Free Web Hosting - Watch Free Movies Online - Watch Free TV Online - Free Web Pages

Find the cheapest Local Gas Prices and Gas Stations in your neighborhood and surrounding area.
Disposable Teens
tuning: Drop D (low to high: D A D G B e)
tabbed by daria - daria6666@hotmail.com

P.M.=palm mute
/=slide
b=bend

Intro:
|------------------------------------|
|------------------------------------|
|--7-7-5--10--7-7-7-7--5-7-----------|
|--7-7-5--10--7-7-7-7--5-7--0-0-0-0--| x4
|--5-5-3---8--5-5-5-5--3-5--0-0-0-0--|
|---------------------------0-0-0-0--|
                            p.m.----

Verse:
|----------------------------------------------------------------|
|----------------------------------------------------------------|
|----------------------------------------------------------------|
|--0--0-0-0-0-0-0--0-0--0-0-0-0-0-0--0--0-0-0-0-0-0--0-0--3/5-5--|x3
|--0--0-0-0-0-0-0--0-0--0-0-0-0-0-0--0--0-0-0-0-0-0--0-0--3/5-5--|
|--0--0-0-0-0-0-0--0-0--0-0-0-0-0-0--0--0-0-0-0-0-0--0-0--3-5-5--|
      p.m.-------       p.m.-------     p.m.-------

|------------------------------------|
|------------------------------------|
|--7-7-5--10--7-7-7-7--5-7-----------|
|--7-7-5--10--7-7-7-7--5-7--0-0-0-0--| x2
|--5-5-3---8--5-5-5-5--3-5--0-0-0-0--|
|---------------------------0-0-0-0--|
                            p.m.---

|---------------------------------------------------------------|
|---------------------------------------------------------------|
|---------------------------------------------------------------|
|--0--0-0-0-0-0-0--0-0--0-0-0-0-0-0--0--0-0-0-0-0-0--0-0--3/5-5-| x2
|--0--0-0-0-0-0-0--0-0--0-0-0-0-0-0--0--0-0-0-0-0-0--0-0--3/5-5-|
|--0--0-0-0-0-0-0--0-0--0-0-0-0-0-0--0--0-0-0-0-0-0--0-0--3/5-5-|
      p.m.-------       p.m.-------      p.m.-------

|-----------------------------------|
|-----------------------------------|
|--7-7-5--10--7-7-7-7-5-7-----------|
|--7-7-5--10--7-7-7-7-5-7--0-0-0-0--| x4
|--5-5-3---8--5-5-5-5-3-5--0-0-0-0--|
|--------------------------0-0-0-0--|
                           p.m.---

|----------------------------------------------------------------|
|----------------------------------------------------------------|
|----------------------------------------------------------------|
|--0--0-0-0-0-0-0--0-0--0-0-0-0-0-0--0--0-0-0-0-0-0--0-0--3/5-5--| x2
|--0--0-0-0-0-0-0--0-0--0-0-0-0-0-0--0--0-0-0-0-0-0--0-0--3/5-5--|
|--0--0-0-0-0-0-0--0-0--0-0-0-0-0-0--0--0-0-0-0-0-0--0-0--3/5-5--|
      p.m.-------       p.m.-------      p.m.-------

|-----------------------------------|
|-----------------------------------|
|--7-7-5--10--7-7-7-7-5-7-----------|
|--7-7-5--10--7-7-7-7-5-7--0-0-0-0--| x4
|--5-5-3---8--5-5-5-5-3-5--0-0-0-0--|
|--------------------------0-0-0-0--|
                           p.m.---

|-----|          |-------|
|--*--|          |-------|
|--7--| * repeat |--14b--|
|--7--|          |-------|
|--5--|          |-------|
|-----|          |-------|

|-----------------------------------|
|-----------------------------------|
|--7-7-5--10--7-7-7-7-5-7-----------|
|--7-7-5--10--7-7-7-7-5-7--0-0-0-0--| x12
|--5-5-3---8--5-5-5-5-3-5--0-0-0-0--|
|--------------------------0-0-0-0--|
p.m.----


Back