web space | free hosting | Business WebSite Hosting | Free Website Submission | shopping cart | php hosting
I Put A Spell On You

tabbed by origin x

KEY: X Mute string
(6) Ghost note
6h9 Hammer on note
9p6 Pull-off note
6s9 Slide to note
/ \ Slide up to/down from infinity
6b9 Bend to note
9r6 Release to note
<9> Play note while bent
^^ Hold bend
~~ Tremolo

BASS INTRO:
G|----------------|
D|----------------|
A|----------------|
E|-------12-12-12-|

BASS RIFF:
G||--------------|--------------||--------------|--------------||
D||o-------------|-------------o||o-------------|-------------o||
A||o-------------|-------------o||o-0-----0-----|-0-----3-3-3-o||
E||--0-----0-----|-0-----3-3-3--||--------------|--------------||

G||--------------|--------------||-------------|-------------|
D||o-------------|-------------o||-------------|-------------|
A||o-------------|-------------o||-2-----2-----|-2-----2-----|
E||--0-----0-----|-0-----3-3-3--||-------------|-------------|


__________________________________
G||--------------|--------------||     |
   |
D||o-------------|-------------o||     | INTERLUDE + OUTRO:
   |
A||o-------------|-------------o||     |
G|--------------------------|| |
E||--0-----0-----|-0-----3-3-3--||     |
D|--------------------------||  |
                                       |
A|--------------------------||  |
                                       |
E|-0------------------------||  |

|__________________________________|
RIFF 1:
e||--------------|--------------||--------------|--------------||
B||--------------|--------------||--------------|--------------||
G||o-------------|-------------o||o-----2---0---|-----2---0---o||
D||o-----2---0---|-----2---0---o||o---2-------1-|---2-------1-o||
A||----2-------1-|---2-------1--||--------------|--------------||
E||--0-----------|--------------||--------------|--------------||

                   Fill on repeat
e||--------------|--------------||-------------|-------------|
B||--------------|--------------||-------------|-----4-----4-|
G||o-------------|-------------o||-----2-----2-|---------2---|
D||o-----2---0---|-----2---0---o||---2-----2---|---2---------|
A||----2-------1-|---2-------1--||-2-----2-----|-2-----2-----|
E||--0-----------|--------------||-------------|-------------|
                                        ____________________
                    Fill on first      |                    |
e||--------------|--------------||     |  INTERLUDE:        |
B||--------------|--------------||     |  e|-------------|  |
G||o-------------|-------------o||     |  B|-------------|  |
D||o-----2---0---|-----2---0---o||     |  G|-------------|  |
A||----2-------1-|---2-------1--||     |  D|-------------|  |
E||--0-----------|--------------||     |  A|-------------|  |
                                       |  E|-0-----------|  |
FILL:                                  |____________________|
e|-------------|
B|-------------|
G|-------------|
D|-------XXXXXX|
A|-------XXXXXX|
E|-------XXXXXX|

SOLO 1:
         Slow bends and releases...
e|------|-------------|--------------|-------------|---15--------|
B|------|-------------|-15-17--------|-------------|-15----------|
G|-<16>^^^^^^^^^^^r15-|--------------|-15b16^^^r15-|-------------|
D|------|-------------|--------------|-------------|-------------|
A|------|-------------|--------------|-------------|-------------|
E|------|-------------|--------------|-------------|-------------|

e|-------------|--------------|-------------|-------------|
B|-------------|-15-17--------|-------------|-------------|
G|-15b16^^^r15-|--------------|-15b16^^^r15-|-------------|
D|-------------|--------------|-------------|-14------\---|
A|-------------|--------------|-------------|-------------|
E|-------------|--------------|-------------|-------------|

RIFF 2:
e||--------------|--------------||--------------|----------------||
B||--------------|--------------||--------------|----------------||
G||o-------------|-------------o||o-------------|---------------o||
D||o-2-XXXX2-XXXX|-2-XXXX5-5-5-o||o-7-XXXX7-XXXX|-7-XXXX-101010-o||
A||--2-XXXX2-XXXX|-2-XXXX5-5-5--||--7-XXXX7-XXXX|-7-XXXX-1010-8--||
E||--0-XXXX0-XXXX|-0-XXXX3-3-3--||--5-XXXX5-XXXX|-5-XXXX--8-8-8--||

e||--------------|--------------||-------------|-------------|
B||--------------|--------------||-------------|-------------|
G||o-------------|-------------o||-------------|-------------|
D||o-2-XXXX2-XXXX|-2-XXXX5-5-5-o||-9-XXXX9-XXXX|-9-XXXX9-9-9-|
A||--2-XXXX2-XXXX|-2-XXXX5-5-5--||-9-XXXX9-XXXX|-9-XXXX9-9-9-|
E||--0-XXXX0-XXXX|-0-XXXX3-3-3--||-7-XXXX7-XXXX|-7-XXXX7-7-7-|
                                        _______________
e||--------------|--------------||     |               |
B||--------------|--------------||     |  OUTRO:       |
G||o-------------|-------------o||     |  e|-------||  |
D||o-2-XXXX2-XXXX|-2-XXXX5-5-5-o||     |  B|-------||  |
A||--2-XXXX2-XXXX|-2-XXXX5-5-5--||     |  G|-------||  |
E||--0-XXXX0-XXXX|-0-XXXX3-3-3--||     |  D|-------||  |
                                       |  A|-------||  |
                                       |  E|-0-----||  |
                                       |_______________|
SOLO 2:
e|---------------|-------------------|-------------------|-------------------------|
B|---------------|-------------------|-------------------|-------------------------|
G|---------------|-------------------|-------------12-14-|-14b15<15>---14b15<15>---|
D|---------------|-------------------|-14~14~14~14~------|----------14----------14-|
A|-7-77777-10-12-|-12~12~12~12~10-12-|-------------------|-------------------------|
E|---------------|-------------------|-------------------|-------------------------|

e|-----------------|---------------------|-----------------|--------15--15-15-15-|
B|-15------15------|-15------15h17-17-17-|---15-17---15-17-|---15s17--17---------|
G|---14~14~--14~14~|---14~14~------------|-14-----14~------|-14------------------|
D|-----------------|---------------------|-----------------|---------------------|
A|-----------------|---------------------|-----------------|---------------------|
E|-----------------|---------------------|-----------------|---------------------|

e|-15------15------|-15-17-18-18-17-15-|------------------|-----------------|
B|---17~17~--17~17~|-------------------|-17-15-15------15-|------15------15-|
G|-----------------|-------------------|---------16~16~---|-16~~~--16~16~---|
D|-----------------|-------------------|------------------|-----------------|
A|-----------------|-------------------|------------------|-----------------|
E|-----------------|-------------------|------------------|-----------------|

e|-----------------------|-----------------------|
B|-----------------------|------15(15)-----15(15)|
G|------------------12---|-12s14------12s14------|
D|-------12---12s14------|-----------------------|
A|-12s14-----------------|-----------------------|
E|-----------------------|-----------------------|

e|----------------------------------|--------------------------|---------------|
B|---15s17-17p15-17--15s17-17p15-17-|---15s17-17p15-17---------|---------------|
G|-14--------------14---------------|-14--------------14-16~16~|-14-16~~~~~~~~-|
D|----------------------------------|--------------------------|---------------|
A|----------------------------------|--------------------------|---------------|
E|----------------------------------|--------------------------|---------------|


LYRICS & ORDER:
Bass Intro, then play the first two bars of the Bass Riff twice alone (w/o repeat), then Riff 1 enters, first two bars (w/o repeat) eight times,
Fill on the fourth time.

RIFF 1:
I put a spell on you
Because you're mine
I can't stand the things that you do
No, no, no, I ain't lyin, no
I don't care if you don't want me
Cause I'm yours, yours, yours anyhow
I am yours, yours, yours
INTERLUDE:
I love you, I love you
I love you, I love you, I love you
I love you, I love you
I love you, I love you
SOLO 1: I got you! Yeah!
RIFF 2:
I put a spell on you
Lord, Lord, Lord!
Cause you're mine, yeah
I can't stand the things that you do
When you're foolin around
I don't care if you don't want me
Cause I'm yours, yours, yours anyhow, yeah
I am yours, yours, yours!
SOLO 2
RIFF 2:
Oh, I can't stand your foolin around
If I can't have you no one will!
I love you, you, you!
I love you, I love you, I love you!
I love you, you, you!
I don't care if you don't want me
Cause I'm yours, yours, yours anyhow, yeah
I am yours, yours, yours, yours, yours, yours
Yours, yours, yours, yours, yours, yours
Yours! OUTRO: Oh



Back