web space | free hosting | Business WebSite Hosting | Free Website Submission | shopping cart | php hosting
Redeemer

tabbed by origin x
Guitar: Standard Tuning
Bass: Dropped D Tuning

Its quit easy to play the bass to a song if you have the guitar tabs for it, but since the bass is in Dropped D, The 6 on the E string (in the verse) becomes an 8 on bass.

Bass Intro
G-------------------------------------------------------------------------------------------------------------
D-------------------------------------------------------------------------------------------------------------
A-3--3-3-3p2--2-2-2h3--3-3-3p2--2-2-2-------------------------------------------------------------------------
D------------------------------------------------0---5-0-0-5--6--0-0-6-0--3--0-3--0-0-3--5-0-0--5-0--1--------
                                                              |_____________Repeated until Verse______________|

Intro 1

(Synthesizer transcribed for Guitar 2) Intro 2 (Guitar 1)
e---------------------------------------------|------20--18--16--15-13-15--16-------20--18--16--15-13-15-----
B-13---11---10--------8---4---1----------|--13----------------------------------13---------------------------
G--------------------------------------------|---------------------------------------------------------------
D--------------------------------------------|---------------------------------------------------------------
A--------------------------------------------|---------------------------------------------------------------
E--------------------------------------------|---------------------------------------------------------------

Verse
e-------------------------------------------------------------------------------------
B-------------------------------------------------------------------------------------
G-8----7----5--------------8----7----10-----------------------------------------------
D-8----7----5----8---------8----7----10-----------------------------------------------
A-6----5----3----8---------6----5----8------------------------------------------------
E------------------6------------------------------------------------------------------

"Hunger inside given to me..."

Chorus
e-------------------------------------------------------------------------------------
B-------------------------------------------------------------------------------------
G-3----3---3-3----7----8--10-------5--------3----3---3-3----7----8--10--------5-------
D-3----3---3-3----7----8--10-------5--------3----3---3-3----7----8--10--------5-------
A-1----1---1-1----5----6---8--------3--------1----1---1-1----5----6---8--------3------
E-------------------------------------------------------------------------------------



Back