web space | website hosting | Business Hosting Services | Free Website Submission | shopping cart | php hosting
The Death Song
tuning: standard
tabbed by daria - daria6666@hotmail.com

Chorus 1:
|---------------------------------------------------
|---------------------------------------------------
|--9-9-9-9-9-9-9-9-9-9-9-9-7-7-7-7-7-7-7-7-7-7-7-7--
|--9-9-9-9-9-9-9-9-9-9-9-9-7-7-7-7-7-7-7-7-7-7-7-7--
|--7-7-7-7-7-7-7-7-7-7-7-7-5-5-5-5-5-5-5-5-5-5-5-5--
|---------------------------------------------------

|---------------------------------------------------
|---------------------------------------------------
|--9-9-9-9-9-9-9-9-9-9-9-9-7-7-7-7-7-7-7-7-7-7-7-7--
|--9-9-9-9-9-9-9-9-9-9-9-9-7-7-7-7-7-7-7-7-7-7-7-7--
|--7-7-7-7-7-7-7-7-7-7-7-7-5-5-5-5-5-5-5-5-5-5-5-5--
|---------------------------------------------------

|---------------------------------------------------
|---------------------------------------------------
|--5-5-5-5-5-5-5-5-5-5-5-5-7-7-7-7-7-7-7-7-7-7-7-7--
|--5-5-5-5-5-5-5-5-5-5-5-5-7-7-7-7-7-7-7-7-7-7-7-7--
|--3-3-3-3-3-3-3-3-3-3-3-3-5-5-5-5-5-5-5-5-5-5-5-5--
|---------------------------------------------------

|---------------------------------------------------|
|---------------------------------------------------|
|--5-5-5-5-5-5-5-5-5-5-5-5-7-7-7-7-7-7-7-7-7-7-7-7--|
|--5-5-5-5-5-5-5-5-5-5-5-5-7-7-7-7-7-7-7-7-7-7-7-7--|
|--3-3-3-3-3-3-3-3-3-3-3-3-5-5-5-5-5-5-5-5-5-5-5-5--|
|---------------------------------------------------|

Verse 2:
|-------------12-------------|
|--12-11---------12-11-------|
|----------------------------|
|---------14------------14---|
|----------------------------|
|----------------------------|

Chorus 2:
|---------------------------------------------------
|---------------------------------------------------
|--9-9-9-9-9-9-9-9-9-9-9-9-7-7-7-7-7-7-7-7-7-7-7-7--
|--9-9-9-9-9-9-9-9-9-9-9-9-7-7-7-7-7-7-7-7-7-7-7-7--
|--7-7-7-7-7-7-7-7-7-7-7-7-5-5-5-5-5-5-5-5-5-5-5-5--
|---------------------------------------------------

|---------------------------------------------------
|---------------------------------------------------
|--9-9-9-9-9-9-9-9-9-9-9-9-7-7-7-7-7-7-7-7-7-7-7-7--
|--9-9-9-9-9-9-9-9-9-9-9-9-7-7-7-7-7-7-7-7-7-7-7-7--
|--7-7-7-7-7-7-7-7-7-7-7-7-5-5-5-5-5-5-5-5-5-5-5-5--
|---------------------------------------------------

|---------------------------------------------------
|---------------------------------------------------
|--5-5-5-5-5-5-5-5-5-5-5-5-7-7-7-7-7-7-7-7-7-7-7-7--
|--5-5-5-5-5-5-5-5-5-5-5-5-7-7-7-7-7-7-7-7-7-7-7-7--
|--3-3-3-3-3-3-3-3-3-3-3-3-5-5-5-5-5-5-5-5-5-5-5-5--
|---------------------------------------------------

|---------------------------------------------------|
|---------------------------------------------------|
|--5-5-5-5-5-5-5-5-5-5-5-5-7-7-7-7-7-7-7-7-7-7-7-7--|
|--5-5-5-5-5-5-5-5-5-5-5-5-7-7-7-7-7-7-7-7-7-7-7-7--|
|--3-3-3-3-3-3-3-3-3-3-3-3-5-5-5-5-5-5-5-5-5-5-5-5--|
|---------------------------------------------------|

guitar 2 after chorus:
|------------------------------------------------
|------------------------------------------------
|--7/9--9-9--7/9--9-9\--12-12-12-12-12-12-12-12--
|--7/9--9-9--7/9--9-9\--12-12-12-12-12-12-12-12--
|--5/7--7-7--5/7--7-7\--10-10-10-10-10-10-10-10--
|------------------------------------------------

|---------------------------|
|---------------------------|
|--11-11-11-11-11-11-11-11--|
|--11-11-11-11-11-11-11-11--|
|---9--9--9--9--9--9--9--9--|
|---------------------------|

Chorus 3:
|---------------------------------------------------
|---------------------------------------------------
|--9-9-9-9-9-9-9-9-9-9-9-9-7-7-7-7-7-7-7-7-7-7-7-7--
|--9-9-9-9-9-9-9-9-9-9-9-9-7-7-7-7-7-7-7-7-7-7-7-7--
|--7-7-7-7-7-7-7-7-7-7-7-7-5-5-5-5-5-5-5-5-5-5-5-5--
|---------------------------------------------------

|---------------------------------------------------
|---------------------------------------------------
|--9-9-9-9-9-9-9-9-9-9-9-9-7-7-7-7-7-7-7-7-7-7-7-7--
|--9-9-9-9-9-9-9-9-9-9-9-9-7-7-7-7-7-7-7-7-7-7-7-7--
|--7-7-7-7-7-7-7-7-7-7-7-7-5-5-5-5-5-5-5-5-5-5-5-5--
|---------------------------------------------------

|---------------------------------------------------
|---------------------------------------------------
|--5-5-5-5-5-5-5-5-5-5-5-5-7-7-7-7-7-7-7-7-7-7-7-7--
|--5-5-5-5-5-5-5-5-5-5-5-5-7-7-7-7-7-7-7-7-7-7-7-7--
|--3-3-3-3-3-3-3-3-3-3-3-3-5-5-5-5-5-5-5-5-5-5-5-5--
|---------------------------------------------------

|---------------------------------------------------|
|---------------------------------------------------|
|--5-5-5-5-5-5-5-5-5-5-5-5-7-7-7-7-7-7-7-7-7-7-7-7--|
|--5-5-5-5-5-5-5-5-5-5-5-5-7-7-7-7-7-7-7-7-7-7-7-7--|
|--3-3-3-3-3-3-3-3-3-3-3-3-5-5-5-5-5-5-5-5-5-5-5-5--|
|---------------------------------------------------|

guitar 2:
|--15h17--15-------|
|-------------17---|
|------------------|
|------------------|
|------------------|
|------------------|

end on:
|-----|
|-----|
|--9--|
|--9--|
|--7--|
|-----|


Back