web space | free website | Web Hosting | Free Website Submission | shopping cart | php hosting
Mobscene
tuning: drop d (low to high: D A D G B e)
tabbed by daria - daria6666@hotmail.com

Intro/Chorus:
|------------------------------------------|
|------------------------------------------|
|------------------------------------------|
|--2-2-2-2--5-\-2-/-7--2-2-/-5-\-2--0-2-0--|
|--2-2-2-2--5-\-2-/-7--2-2-/-5-\-2--0-2-0--|
|--2-2-2-2--5-\-2-/-7--2-2-/-5-\-2--0-2-0--|

0:54
|--------------------------------------------|
|--------------------------------------------|
|--------------------------------------------| x3
|--7-7-7-7-7-7-7-7--10-10-10-10-10-10-10-10--|
|--7-7-7-7-7-7-7-7--10-10-10-10-10-10-10-10--|
|--7-7-7-7-7-7-7-7--10-10-10-10-10-10-10-10--|
after 3rd time:
|-----------------------------------|
|-----------------------------------|
|-----------------------------------|
|--8-8-8-8-8-8-8-8-8-8-8-8-8-8-8-8--|
|--8-8-8-8-8-8-8-8-8-8-8-8-8-8-8-8--|
|--8-8-8-8-8-8-8-8-8-8-8-8-8-8-8-8--|

before 2nd verse:
|------------|
|------------|
|------------|
|--0--2--0---|
|--0--2--0---|
|--0--2--0---|

Chorus:
|------------------------------------------|
|------------------------------------------|
|------------------------------------------|
|--2-2-2-2--5-\-2-/-7--2-2-/-5-\-2--0-2-0--|
|--2-2-2-2--5-\-2-/-7--2-2-/-5-\-2--0-2-0--|
|--2-2-2-2--5-\-2-/-7--2-2-/-5-\-2--0-2-0--|

1:53
|--------------------------------------------|
|--------------------------------------------|
|--------------------------------------------| x3
|--7-7-7-7-7-7-7-7--10-10-10-10-10-10-10-10--|
|--7-7-7-7-7-7-7-7--10-10-10-10-10-10-10-10--|
|--7-7-7-7-7-7-7-7--10-10-10-10-10-10-10-10--|

after 3rd time:
|-----------------------------------|
|-----------------------------------|
|-----------------------------------|
|--8-8-8-8-8-8-8-8-8-8-8-8-8-8-8-8--|
|--8-8-8-8-8-8-8-8-8-8-8-8-8-8-8-8--|
|--8-8-8-8-8-8-8-8-8-8-8-8-8-8-8-8--|

2:07
|------------|
|------------|
|------------|
|--0--2--0---|
|--0--2--0---|
|--0--2--0---|

2:44
|--------------------------------------------|
|--------------------------------------------|
|--------------------------------------------| x3
|--7-7-7-7-7-7-7-7--10-10-10-10-10-10-10-10--|
|--7-7-7-7-7-7-7-7--10-10-10-10-10-10-10-10--|
|--7-7-7-7-7-7-7-7--10-10-10-10-10-10-10-10--|

after 3rd time:
|-----------------------------------|
|-----------------------------------|
|-----------------------------------|
|--8-8-8-8-8-8-8-8-8-8-8-8-8-8-8-8--|
|--8-8-8-8-8-8-8-8-8-8-8-8-8-8-8-8--|
|--8-8-8-8-8-8-8-8-8-8-8-8-8-8-8-8--|

Chorus:
|------------------------------------------|
|------------------------------------------|
|------------------------------------------|
|--2-2-2-2--5-\-2-/-7--2-2-/-5-\-2--0-2-0--|
|--2-2-2-2--5-\-2-/-7--2-2-/-5-\-2--0-2-0--|
|--2-2-2-2--5-\-2-/-7--2-2-/-5-\-2--0-2-0--|

Ending:
|--------------------------------|
|--------------------------------|
|--------------------------------|
|--7-7-7-7-7-7--2-2-2-2-/-5-\-2--|
|--7-7-7-7-7-7--2-2-2-2-/-5-\-2--|
|--7-7-7-7-7-7--2-2-2-2-/-5-\-2--|



Back