web space | free website | Business Hosting | Free Website Submission | shopping cart | php hosting
Astonishing Panorama of the Endtimes

tabbed by origin x

Intro (reapeat a lot)
e----------------------------------------------------------
B----------------------------------------------------------
G--9----9----9----9----9----9------------------------------
D--9----9----9----9----9----9------------------------------
A----------------------------------------------------------
E----------------------------------------------------------

Verse A (Guitar 1, palm muted and repeated a lot)
e----------------------------------------------------------
B----------------------------------------------------------
G----------------------------------------------------------
D--2-2-2-2-2-2-2-2-2-2-2-2-2-2-2-2-------------------------
A--2-2-2-2-2-2-2-2-2-2-2-2-2-2-2-2-------------------------
E--0-0-0-0-0-0-0-0-0-0-0-0-0-0-0-0-------------------------

Verse B (Guitar 2)
e----------------------------------------------------------
B----------------------------------------------------------
G-----------------9-------------9--------------------------
D-----------5-7-8-9-------5-7-8-9--------------------------
A-----------5-7-8-7-------5-7-8-7--------------------------
E-----------3-5-6-0-------3-5-6-0--------------------------

Chorus
e----------------------------------------------------------
B----------------------------------------------------------
G----9---------9-----------9---------9---------------------
D--2-9-8-7---2-9-8-7-5--2--9-8-7---2-9-5-7-8---------------
A--2-7-8-7---2-7-8-7-5--2--7-8-7---2-7-5-7-8---------------
E--0---6-5---0---6-5-3--0----6-5---0---3-5-6---------------
("Violence for the people...")

Post-Chorus A (Guitar 1)
e----------------------------------------------------------
B----------------------------------------------------------
G--7----8--9----7----8--9----------------------------------
D--7----8--9----7----8--9----------------------------------
A--5----6--7----5----6--7----------------------------------
E--5----6--7----5----6--7----------------------------------
("Kill your God...")

Solo 1
e--19--19--19--20^--19-\--19--19--19--20^----------17--15--
B------------------------------------------17--17----------
G----------------------------------------------------------
D----------------------------------------------------------
A----------------------------------------------------------
E----------------------------------------------------------

(continued)
e---------15\--15--17--15--15------------------------------
B--17-17---------------------------------------------------
G----------------------------------------------------------
D----------------------------------------------------------
A----------------------------------------------------------
E----------------------------------------------------------

Riff (continued off Solo 1) end on
e-----19-19-19-19--19-----19--19--19---|-------------------
B--17-----------------20---------------|--17---------------
G--------------------------------------|---x---------------
D--------------------------------------|--14---------------
A--------------------------------------|-------------------
E--------------------------------------|-------------------

Bridge (palm muted) end on
e--------------------------------------------------|-------
B--------------------------------------------------|-------
G--------------------------------------------------|-------
D--------------------------------------------------|-5^--\-
A--------------------------------------------------|-------
E--3--2--1--0--3--2--1--0--3--2--1--2--3--0--0--0--|-------

Solo 2
e-----17/19\15-----17/19\15-----18/20\17-------------------
B----------------------------------------------------------
G---16------------16-----------16--------------------------
D-----------------------------------------17--16--15-------
A----------------------------------------------------------
E----------------------------------------------------------

(continued)
e--17/19\15--------------17/19\15--------------------------
B----------------------------------------------------------
G----------------------------------------------------------
D------------17--16--15------------------------------------
A-----------------------------------10-\-7---7/10----------
E----------------------------------------------------------

(continued)
e-----------------h15h17h19-(x8)--17\12--(x8)--12v---------
B--12h13h17-(x8)-------------------------------------------
G----------------------------------------------------------
D----------------------------------------------------------
A----------------------------------------------------------
E----------------------------------------------------12\---

(continued)
e-------------12v----------12V-----------------------------
B----------------------------------------------------------
G----------------------------------------------------------
D----------------------------------------------------------
A--10h11h12---------------------------10h11h12-------------
E-------------------12\---------12\------------------------

Intro
Verse A, B
Chorus
Verse B
Chorus
Post-Chorus A
Verse A, B Fill
Verse B
Verse A, B
Chorus
Post-Chorus A, B
Verse A, B, Solo 1
Bridge
Verse A, B, Solo 2
Intro
Chorus



Back