web space | website hosting | Business Web Hosting | Free Website Submission | shopping cart | php hosting
Surrender - Cheap Trick Cover (Live)

tabbed by origin x
Tuned down 1/2 a step
E,A,D,G,B,e becomes Eb,Ab,Db,Gb,Bb,eb

Intro A (Guitar 1)
eb------------------------------------------------------
Bb------------------------------------------------------
Gb--7-----------------7---------------------------------
Db--7-(x16)---2-------7-(x16)---2-----------------------
Ab--5---------2-------5---------2-----------------------
Eb------------0-----------------0-----------------------

Intro B (syntasizer arranged for Guitar 2)
eb------------19----------------19----------------------
Bb----------------17----------------17------------------
Gb--16---18-------------16--18--------------------------
Db------------------------------------------------------
Ab------------------------------------------------------
Eb------------------------------------------------------

Verse 1A (Guitar 1, each hit 8 times and palm muted)
eb------------------------------------------------------
Bb------------------------------------------------------
Gb--9-----------9-----9-----------9---------------------
Db--9---9---7---9-----9---9---7---9---------------------
Ab--7---9---7---7-----7---9---7---7---------------------
Eb------7---5------------7---5--------------------------
("Mama told me...")

Verse 1B (synthasizer arranged for Guitar 2)
eb--12-12-12-12-12-12--13-13---12-12-12-12-12-12--13-13-
Bb------------------------------------------------------
Gb------------------------------------------------------
Db------------------------------------------------------
Ab------------------------------------------------------
Eb------------------------------------------------------

Pre-Chorus 1
eb------------------------------------------------------
Bb------------------------------------------------------
Gb--------------------9-------9---9---9---9-------------
Db--7m-(x8)--9m-(x8)--9-(x6)--9---9---9---9-(x5)--------
Ab--7m-------9m-------7-------7---7---7---7-------------
Eb--5m-------7m-----------------------------------------
("Just the other day...")

Chorus 1 (each hit 8 times)           end on
eb-------------------------------------|----------------
Bb-------------------------------------|----------------
Gb--9-----------------9----------------|----------------
Db--9---11---9---7----9---11---9---7---|--7--7--7--7----
Ab--7---11---9---7----7---11---9---7---|--7--7--7--7----
Eb-------9---7---5---------9---7---5---|--5--5--5--5----
("Mommy's all right...")

Verse 2A (Guitar 1, each hit 8 times and palm muted)
eb------------------------------------------------------
Bb------------------------------------------------------
Gb--10------------10----10------------10----------------
Db--10---10---8---10----10---10---8---10----------------
Ab---8---10---8----8-----8---10---8----8----------------
Eb--------8---6---------------8---6---------------------

Verse 2B (synthasizer arranged for Guitar 2)
eb--13-13-13-13-13-13--14-14--13-13-13-13-13-13--14-14--
Bb------------------------------------------------------
Gb------------------------------------------------------
Db------------------------------------------------------
Ab------------------------------------------------------
Eb------------------------------------------------------

Pre-Chorus 2
eb------------------------------------------------------
Bb------------------------------------------------------
Gb--------------------10-------10---10---10---10--------
Db--8m-(x8)--8m-(x8)--10-(x6)--10---10---10---10-(x5)---
Ab--8m-------8m--------8--------8----8----8----8--------
Eb--6m-------6m-----------------------------------------

Chorus 2 (each hit 8 times)             end on
eb----------------------------------------|-------------
Bb----------------------------------------|-------------
Gb--10-----------------10-----------------|-------------
Db--10---12--10---8----10---12---10---8---|--8--8--8--8-
Ab---8---12--10---8-----8---12---10---8---|--8--8--8--8-
Eb-------10---8---6---------10----8---6---|--6--6--6--6-

Bridge (each hit 8 times)
eb------------------------------------------------------
Bb------------------------------------------------------
Gb--10-------10---------10-------10---------------------
Db--10---8---10---10----10---8---10---10----------------
Ab---8---8----8---10-----8---8----8---10----------------
Eb-------6---------8---------6---------8----------------

Intro A, B
Verse 1A, 1B
Pre-Chorus 1, Verse 1B
Chorus 1
Intro A, B
Verse 1A, 1B
Pre-Chorus 1, Verse 1B
Chorus 1
Intro A, B
Verse 2A, 2B
Pre-Chorus 2, Verse 2B
Chorus 2
Bridge
Chorus 2



Back