web space | website hosting | Business Hosting Services | Free Website Submission | shopping cart | php hosting
Free Domain Name with Hosting from Network Solutions®!
Sick City

tabbed by origin x
Dropped D, but the tuning sounds a bit off.
Played on a 12-string acoustic.

<> = harmonics

Intro
e-------------------------------------------------------
B-------------------------------------------------------
G-------------------------------------------------------
D------------------------3----3----------3--------------
A------------------------5----5----10----5----10-(x8)---
D--<12>--<12>--/-<5>--0-------0-----0----0-----0--------
("Sick City...")

Verse end on
e----------------------------------------------|----|---
B----------------------------------------------|----|---
G----------------------------------------------|----|---
D--3-3-3-3-3-3-3-3-3---------------------------|-*3-|-7-
A--5-5-5-5-5-5-5-5-5--10-10-10-10-10-10-10-10--|-*5-|-7-
D--0-0-0-0-0-0-0-0-0---0--0--0--0--0--0--0--0--|-*0-|-7-
("To make the sky look...")
*only played the first time, use the A the other times

Break
e-------------------------------------------------------
B-------------------------------------------------------
G-------------------------------------------------------
D--3-3-3-----3-3-3-----3-3-3-----3-3-3------------------
A--5-5-5--0--5-5-5--0--5-5-5--0--5-5-5--0---------------
D--0-0-0--0--0-0-0--0--0-0-0--0--0-0-0--0---------------

Bridge end on
e------------------------------------|------------------
B------------------------------------|------------------
G------------------------------------|------------------
D-7-7-7-7-7-7-7-7--5-5-5-5-5-5-5-5---|---7--------------
A-7-7-7-7-7-7-7-7--5-5-5-5-5-5-5-5---|---7--------------
D-7-7-7-7-7-7-7-7--5-5-5-5-5-5-5-5---|---7--------------
("I'm just one of those restless people...")

Intro
Verse
Break
Verse
Break
Bridge
Break
Verse
Break



Back