web space | free website | Web Hosting | Free Website Submission | shopping cart | php hosting
Highway to Hell

tabbed by origin x
Dropped D and tuned down half a step
E,A,D,G,B,e is now Db,Ab,Db,Gb,Bb,eb

Intro A (Guitar 1, with effects)
eb--------------------------------------------------------
Bb--------------------------------------------------------
Gb--------------------------------------------------------
Db--7---------5---------7------5------7-------------------
Ab--------------------------------------------------------
Db----7-7-------5-5-------7-7----5-5----7-7---------------

Intro B (Guitar 2)
eb---------5^--------3^--------3^---------5^--------------
Bb--------------------------------------------------------
Gb--------------------------------------------------------
Db--------------------------------------------------------
Ab--------------------------------------------------------
Db--------------------------------------------------------

Riff
eb--------------------------------------------------------
Bb--------------------------------------------------------
Gb--------------------------------------------------------
Db--7-7-----7-7-----7-7--7-7--7-7-------------------------
Ab--7-7-----7-7-----7-7--7-7--7-7-------------------------
Db--7-7-----7-7-----7-7--7-7--7-7-------------------------

Verse (Guitar 1, very light)
eb--------------------------------------------------------
Bb--------------------------------------------------------
Gb--------------------------------------------------------
Db--7-7-----5-5-----7-7--5-5--7-7-------------------------
Ab--7-7-----5-5-----7-7--5-5--7-7-------------------------
Db--7-7-----5-5-----7-7--5-5--7-7-------------------------
("They were easy...")

Chorus end on
eb-----|------------------------------------|-------------
Bb-----|------------------------------------|-------------
Gb-----|------------------------------------|-------------
Db--2--|--7-7-7-7-7-7-7-7--5-5-5-5-5-5-5-5--|-7-------0---
Ab--2--|--7-7-7-7-7-7-7-7--5-5-5-5-5-5-5-5--|-7-(x8)--0---
Db--2--|--7-7-7-7-7-7-7-7--5-5-5-5-5-5-5-5--|-7-------0---
("I'm on a highway to hell...")

Bridge
eb--------------------------------------------------------
Bb--------------------------------------------------------
Gb--14---14---14---14---14-14---14---14---14--------------
Db---x----x----x----x----x--x----x----x----x--------------
Ab--12---12---12---12---12-12---12---12---12-12-----------
Db--------------------------------------------0-----------

(Outro)
eb--17-17-17-17--16-16-16-16--15-15-15-15-15-15-15-15-----
Bb--------------------------------------------------------
Gb--------------------------------------------------------
Db--------------------------------------------------------
Ab--------------------------------------------------------
Db--------------------------------------------------------

Intro A, B
Riff, Intro B
Verse, Intro B
Chorus
Intro A, B
Verse, Intro B
Chorus
Bridge
Chorus
Chorus, Outro



Back