web space | free website | Business Hosting | Free Website Submission | shopping cart | php hosting
Get My Rocks Off - Dr Hook Cover

tabbed by origin x
Standard Tunning
Legend:

h = hammer-on
p = pull-of
b = bend
r = realse
/ = slide down
\ = slide upp
~ = vibration
T = taping
. = palm muted
()= ghost note
<>= harmoni
# = Pinch Harmoni
x = mute with your left hand
* = tremelo picking

Solo

|-------------------------------------------------------------------------------|
|-------------------------------------------------------------------------------|
|----------------------------12-14b15rp12----12--14b15r-14p12h14p12-----------/9|
|----------------------12-14--------------14-----------------------14p12--------|
|7~-5-5b7r--/12--12-14--------------------------------------------------14p12---|
|-------------------------------------------------------------------------------|

|-------------------------------12-----------------------|
|----------------------------------15p12-15--------------|
|-7~------------------------------------------7-9-7-9-11-|
|----7p5h7-<7>-7p5h7-7-7---14b---------------------------|
|--------------------------------------------------------|
|--------------------------------------------------------|



Back