web space | free website | Business Web Hosting | Free Website Submission | shopping cart | php hosting
Five to One

tabbed by origin x

Chorus A (Guitar 1)
e--------------------------------------------------------
B--------------------------------------------------------
G--------------------------------------------------------
D--7----7----7----7--5----7----7----7----7--5------------
A--7----7----7----7--5----7----7----7----7--5------------
E--5----5----5----5--3----5----5----5----5--3------------

Bass-Verse
G--------------------------------------------------------
D--------------------------------------------------------
A--------------------------------------------------------
E--5----5----5----5--3----5----5----5----5--3------------
("Five to one baby...")

Chorus B (Guitar 2)
e--12--10--8h10--8--\---12--10--8h10--8------------------
B---------------------------------------10-------8h10----
G-------------------------------------------9h11---------
D--------------------------------------------------------
A--------------------------------------------------------
E--------------------------------------------------------

Verse (Synthasizer arranged for guitar)
e--------------------------------------------------------
B--------------------------------------------------------
G--0----2--------0-------2-----0----2-------0-----2------
D-------------3------3-------------------3-----3---------
A--------------------------------------------------------
E--------------------------------------------------------
("You'll get old...")

Bass Pre-Chorus
G--------------------------------------------------------
D--------------------------------------------------------
A-------------------0-0-0-0-0-0-0-0----------------------
E--0-0-0-0-0-0-0-0---------------------------------------
("Come on...")

Solo
e-22\20-18--17\15-13--12\10--10-8---------------12^-12^--
B---------------------------------10------8h10-----------
G------------------------------------9h11----------------
D--------------------------------------------------------
A--------------------------------------------------------
E--------------------------------------------------------

(continued)
e-12p10--8h10--8-8-8--12^-12^--12p10--8h10p8--8----------
B-----------------------------------------------10--8----
G--------------------------------------------------------
D--------------------------------------------------------
A--------------------------------------------------------
E--------------------------------------------------------

(continued)
e-12-12-12p10--8h10--8---10p8----------------------------
B-----------------------------h10--10p8------------------
G---------------------------------------9--7h9p7---------
D------------------------------------------------10-7--5-
A--------------------------------------------------------
E--------------------------------------------------------

(continued)
e--------------------------------------------------------
B--------------------------------------------------------
G-----5h7---9--9--9p7-5h7--5---9^---12^---9---9-9-9-9\---
D-5h7-------------------------------12^-------9-9-9-9\---
A--------------------------------------------------------
E--------------------------------------------------------

Bass Bridge 1 Bridge (Synthasizer for guitar)
G-------------------------|------------------------------
D-------------------------|--0--2----------------0--2----
A-------------------------|------------------------------
E-3----5--------3----5----|------------------------------
("The ballroom day is over...")

Bass Bridge 2
G--------------------------------------------------------
D----------------------------5-7-5------------5-7-5------
A--------------------------------------------------------
E-5---3-5---3-5---3-5---3-5---------3-5---3-5--------3-5-

Outro
e-10p8---------------------------------------------------
B------h10--10p8-----------------------------------------
G----------------h9--9p7---------------------------------
D------------------------10-7--5-----5h7--9-9-9p7-5h7--5-
A--------------------------------5h7---------------------
E--------------------------------------------------------

(continued)
e---------------------------------------------8h10-12-10-
B------------------------------------10--10p8------------
G-9^--12--9--9--9------------------9--9------------------
D-----12-----------7--7--10^-7-5h7-----------------------
A--------------------------------------------------------
E--------------------------------------------------------

Chorus A
Bass Verse
Chorus A, B
Bass Verse, Verse
Bass Pre-Chorus
Bass Verse, Solo Bass Bridge 1, Bridge
Bass Bridge 2
Bass Pre-Chorus
Chorus, Outro



Back