web space | free hosting | Business Web Hosting | Free Website Submission | shopping cart | php hosting
Eye (live) With Smashing Pumpkins

tabbed by origin x
Tuned down a 1/2 step
E,A,D,G,B,e become Eb,Ab,Db,Gb,Bb,Eb

Intro (rake down the chords)
eb------0-----------0--------------------------------------
Bb-----1-----------5---------------------------------------
Gb----2-----------0----------------------------------------
Db---2-----------3-----------------------------------------
Ab--0-----------0------------------------------------------
Eb---------------------------------------------------------

Verse A (Guitar 1)                     B (Guitar 2)
eb------------------------0------------|------0---------0--
Bb------1---0-1---1-----6---6-------6--|-----1---------1---
Gb----2---------------0-----------5----|----2---------1----
Db------------------------------0------|---2---------2-----
Ab--0-----0-----0----------------------|--0---------0------
Eb-------------------------------------|-------------------

Pre-Chorus
eb---------------------------------------------------------
Bb---------------------------------------------------------
Gb------0-----0---0-----0-----0---0-----0-----0---0--------
Db----0-----0---------0-----0---------0-----0--------------
Ab--8-----8-----8---7-----7-----7---3-----3-----3----------
Eb---------------------------------------------------------
("Turn to the gates of Heaven...")

(continued)
eb---------------------------------------------------------
Bb---------------------------------------------------------
Gb------0-----0---0-----0-----0---0------------------------
Db----0-----0---------0-----0--------2-2-2-2-2-2-2-2-------
Ab--5-----5-----5---8-----8-----8----2-2-2-2-2-2-2-2-------
Eb-----------------------------------0-0-0-0-0-0-0-0-------

Riff 1A (Guitar 1)
eb---------------------------------------------------------
Bb------1------0-------5------5----------------------------
Gb----2------4-------5------5------------------------------
Db---------5-------0------0--------------------------------
Ab--0------------------------------------------------------
Eb---------------------------------------------------------

Riff 1B (Guitar 2)
eb---------------------------------------------------------
Bb--5-6-5-3-5-3-1-0--1/3------5-6-5-3-5-3-1-0--1/3---------
Gb------------------------2-------------------------2------
Db---------------------------------------------------------
Ab---------------------------------------------------------
Eb---------------------------------------------------------

Riff 2 (Guitar 1)
eb------0-------0-------0-------0--------------------------
Bb------1-------3-------3-------1--------------------------
Gb------2-------0---2-2-2-------2--------------------------
Db--2-2-2-------0---0-0-0-------3--------------------------
Ab--0-0-0---2-2-2-----------3-3-3--------------------------
Eb----------3-3-3-----------1-1-1--------------------------

Solo (Guitar 2)
eb---------------------------------------------------------
Bb--8-8-8-8/10--10--10\8-8-8-8-8/10-12-13-15--13/15--17----
Gb---------------------------------------------------------
Db---------------------------------------------------------
Ab---------------------------------------------------------
Eb---------------------------------------------------------

(continued)
eb---------------------------------------------------------
Bb--15-17-15-13-12-13-12--13-12----15^------17-18-17-15----
Gb------------------------------14-----14------------------
Db---------------------------------------------------------
Ab---------------------------------------------------------
Eb---------------------------------------------------------

(continued)
eb---------------------------------------------------------
Bb--17-15-13-12-13/15-----17-18-17-15-17-15-13-12-13/15----
Gb--------------------14--------------------------------14-
Db---------------------------------------------------------
Ab---------------------------------------------------------
Eb---------------------------------------------------------

Outro
eb--0------------------------------------------------------
Bb--0------------------------------------------------------
Gb--0--(let ring)------------------------------------------
Db--2------------------------------------------------------
Ab--2------------------------------------------------------
Eb--0------------------------------------------------------

Intro
Verse A
Pre-Chorus
Verse A, B
Verse A
Pre-Chorus
Verse B
Riff 1A
Riff 1A, 1B
Riff 2, 1B
Riff 2, Solo
Riff 2, 1B
Outro

There is a chorus to this song, but the guitar is the same as the verse.



Back