web space | free website | Business Hosting Services | Free Website Submission | shopping cart | php hosting
Coma Black
tuning: standard
tabbed by daria - daria6666@hotmail.com

Verse: guitar 1:
|--3------3------3------3------3------3------3------3------3----
|----5------5------5------5------5------5------5------5------5--
|------4------4-------------4------4-------------4------4-------
|---------------------------------------------------------------
|---------------------------------------------------------------
|---------------------------------------------------------------

|--3------3------5----|
|----5------5------5--|
|------4------4-------|
|---------------------|
|---------------------|
|---------------------|

guitar 2:
|--------------------------------------------------------------
|--------------------------------------------------------------
|--9-9-9-9-9-9-9-9-/-12-12-12-12-12-12-12-12--7-7-7-7-7-7-7-7--
|--9-9-9-9-9-9-9-9-/-12-12-12-12-12-12-12-12--7-7-7-7-7-7-7-7--
|--7-7-7-7-7-7-7-7-/-10-10-10-10-10-10-10-10--5-5-5-5-5-5-5-5--
|--0-0-0-0-0-0-0-0-/--0--0--0--0--0--0--0--0--0-0-0-0-0-0-0-0--

|-------------------|
|-------------------|
|--5-5-5-5-5-5-5-5--|
|--5-5-5-5-5-5-5-5--|
|--3-3-3-3-3-3-3-3--|
|--0-0-0-0-0-0-0-0--|

Prechorus: |---------------------------------------------|
|-------0-1--------1-0------------------------|
|----------------------------2-0------0---0---|
|----2----------2-------0---------------------|
|--0----------0-----------0-------0h3---2-----|
|---------------------------------------------|

Chorus:
|-------------------------------------------------------------------|
|-------------------------------------------------------------------|
|----------------------------------7-7-7-7-7-7-7-7-5-5-5-5-5-5-5-5--|
|--2-2-2-2-2-2-2-2-5-5-5-5-5-5-5-5-7-7-7-7-7-7-7-7-5-5-5-5-5-5-5-5--|
|--2-2-2-2-2-2-2-2-5-5-5-5-5-5-5-5-5-5-5-5-5-5-5-5-3-3-3-3-3-3-3-3--|
|--0-0-0-0-0-0-0-0-3-3-3-3-3-3-3-3----------------------------------|

Verse 2:
|-----------------|
|--0----0----0----|
|----3----3----3--|
|-----------------|
|-----------------|
|-----------------|

Chorus: |-------------------------------------------------------------------|
|-------------------------------------------------------------------|
|----------------------------------7-7-7-7-7-7-7-7-5-5-5-5-5-5-5-5--|
|--2-2-2-2-2-2-2-2-5-5-5-5-5-5-5-5-7-7-7-7-7-7-7-7-5-5-5-5-5-5-5-5--|
|--2-2-2-2-2-2-2-2-5-5-5-5-5-5-5-5-5-5-5-5-5-5-5-5-3-3-3-3-3-3-3-3--|
|--0-0-0-0-0-0-0-0-3-3-3-3-3-3-3-3----------------------------------|

Prechorus:
|---------------------------------------------|
|-------0-1--------1-0------------------------|
|----------------------------2-0------0---0---|
|----2----------2-------0---------------------|
|--0----------0-----------0-------0h3---2-----|
|---------------------------------------------|

Chorus:
|-------------------------------------------------------------------|
|-------------------------------------------------------------------|
|----------------------------------7-7-7-7-7-7-7-7-5-5-5-5-5-5-5-5--|
|--2-2-2-2-2-2-2-2-5-5-5-5-5-5-5-5-7-7-7-7-7-7-7-7-5-5-5-5-5-5-5-5--|
|--2-2-2-2-2-2-2-2-5-5-5-5-5-5-5-5-5-5-5-5-5-5-5-5-3-3-3-3-3-3-3-3--|
|--0-0-0-0-0-0-0-0-3-3-3-3-3-3-3-3----------------------------------|


Back