web space | free website | Business Hosting Services | Free Website Submission | shopping cart | php hosting
DOWN IN THE PARK

tabbed by origin x

After drums and bass come in then start with:

|---------------------|
|---------------------|
|5--7--------5--7-----|
|5--7--8--3--5--7--7--|
|3--5--8--3--3--5--7--|
|------6--1--------5--|

Down in the park where the MachMen meet the machines play kill by number Down in the park with a friend called 5

|------------------------------------------|
|------------------------------------------|
|---------------------------------------5--|
|---------------------------------------5--|
|---------------------------------------3--|
|------------------------------------------|

I was in a car crash or was it the war?

|---------------------------------------|
|---------------------------------------|
|5----------7---------------------------|
|5----------7-----------------------8---|
|3----------5-----------------------8---|
|-----------------------------------6---|

but I've never been quite the same

|---------------------------------------|
|---------------------------------------|
|---------------------------------------|
|-------------------3-------------------|
|-------------------3-------------------|
|-------------------1-------------------|

little white lies like I was there

|---------------------------------------|
|---------------------------------------|
|5-------------7------------------------|
|5-------------7----------------7-------|
|3-------------5----------------7-------|
|-------------------------------5-------|

|-----------------------|
|-----------------------|
|-----------------------|
|7-------5------3----3--|
|7-------5------3----3--|
|5-------3------1----1--|

Come to ZomZom's a place to eat

|-------------------------------|
|-------------------------------|
|5-------7----------------------|
|5-------7--------------------8-|
|3-------5--------------------8-|
|-----------------------------6-|
|-------------------------------|

like it was built in one day

|-------------------------------|
|-------------------------------|
|-------------------------------|
|-----------3-------------------|
|-----------3-------------------|
|-----------1-------------------|

you can watch the humans try to run

|--------------------------------------|
|--------------------------------------|
|5-----------------7-------------------|
|5-----------------7-------------7-----|
|3-----------------5-------------7-----|
|--------------------------------5-----|

Oh look there's a rape machine

|---------------------------------------|
|---------------------------------------|
|5-----------------7--------------------|
|5-----------------7--------------------|
|3-----------------5--------------------|
|---------------------------------------|

I'd go outside if he'd look the other way

|---------------------------------------|
|---------------------------------------|
|---------------------------------------|
|------8---------------3----------------|
|------8---------------3----------------|
|------6---------------1----------------|

wouldn't believe the things they'd do

|---------------------------------------|
|---------------------------------------|
|5----------------7---------------------|
|5----------------7------------------7--|
|3----------------5------------------7--|
|------------------------------------5--|

|-----------------------|
|-----------------------|
|-----------------------|
|7-------5------3----3--|
|7-------5------3----3--|
|5-------3------1----1--|

we're not lovers we're not romantics

|---------------------------------------|
|---------------------------------------|
|---------------------------------------|
|7---------------------------5----------|
|7---------------------------5----------|
|5---------------------------3----------|

we are here to serve you

|---------------------------------------|
|---------------------------------------|
|---------------------------------------|
|--------------3--------------3---------|
|--------------3--------------3---------|
|--------------1--------------1---------|

|---------------------|
|---------------------|
|5--7--------5--7-----|
|5--7--8--3--5--7--7--|
|3--5--8--3--3--5--7--|
|------6--1--------5--|

*play as eighth notes, muted a little (repeat 2x)*

Down in the park where the chant is "death"death until the sun cries mourning Down in the park with friends of mine

|------------------------------|
|------------------------------|
|------------------------------|
|----------------------5--5--5-|
|----------------------5--5--5-|
|----------------------3--3--3-|

we're not lovers we're not romantics

|---------------------------------------|
|---------------------------------------|
|5----------7---------------------------|
|5----------7-----------------8------3--|
|3----------5-----------------8------3--|
|-----------------------------6------1--|

we are here to serve you

|---------------------------------------|
|---------------------------------------|
|--------------5--------------7---------|
|--------------5--------------7---------|
|--------------3--------------5---------|
|---------------------------------------|

(a different face but the words never change!)

|---------------------------------------|
|---------------------------------------|
|---------------------------------------|
|------------7--------------------------|
|------------7--------------------------|
|------------5--------------------------|

|-----------------------|
|-----------------------|
|-----------------------|
|7-------5------3----3--|
|7-------5------3----3--|
|5-------3------1----1--|

*play 2x*

we're not lovers we're not romantics

|---------------------------------------|
|---------------------------------------|
|---------------------------------------|
|7---------------------------5----------|
|7---------------------------5----------|
|5---------------------------3----------|

we are here to serve you

|---------------------------------------|
|---------------------------------------|
|---------------------------------------|
|--------------3---------------3--------|
|--------------3---------------3--------|
|--------------1---------------1--------|

*repeat 4x*



Back