web space | website hosting | Business Hosting Services | Free Website Submission | shopping cart | php hosting
Diamonds & Pollen

tabbed by origin x

Lead Intro Guitar

1.00
|-12p10-10--------------------12p10-10-------------------|
|----------12~-10~-8~-6~-5~-------------12~-10~-8~-6~-5~-|
|--------------------------------------------------------|
|--------------------------------------------------------|
|--------------------------------------------------------|
|--------------------------------------------------------|

Main riff Guitar 1

1.31
|-------------------------------------------------------|
|-------------------------------------------------------|
|-------------------------------------------------------|
x1000
|-------------------------------------------------------|
|----------7~---------7~----------------------7~-9~/10~-|
|-0~0~0~0~---0~0~0~0~----<7>-<7>-<7>-0~0~0~0~-----------|

Main Riff Guitar 4

After 2 min or so...

|-------------|
|----8-----5--|
|-9--9--5--5--|
|-9--9--5--5--|
|-7--7--3--3--|
|-------------|

Outro
|-------------------------------------|--------------------------------|
|-------------------------------------|--------------------------------|
|---9-------8--------9---9-10-9-7-5-4-|--------------------------------|
|-----10------9--------0--------------|---10-12----11-13-----14--9-7-5-|
|-3-------9-------7-------------------|-3--------2---------------------|
|-3-------9-------7-----------7-5-3-2-|-3--------2--------12-----7-5-3-|

|-----------------------------|
|-----------------------------|
|-0---------------------------|
|---7-9------8-11-------9-7-5-|
|-3----------------6-7--------|
|-3------3-2------------7-5-3-|



Back