web space | free website | Business Hosting Services | Free Website Submission | shopping cart | php hosting
Tainted Love

tabbed by origin x

Riff 1
e----------------------------------------------------------
B----------------------------------------------------------
G--12-12----12--12----12-12----12--12----------------------
D---x--x-----x---x-----x--x-----x---x----------------------
A--10-10----10--10----10-10----10--10----------------------
E----------------------------------------------------------

Verse
e----------------------------------------------------------
B----------------------------------------------------------
G----------------------------------------------------------
D--5--5-----5---5-----5--5-----5---5-----------------------
A--5--5-----5---5-----5--5-----5---5-----------------------
E--3--3-----3---3-----3--3-----3---3-----------------------

Riff 2
e----------------------------11-11-11-11-------------------
B---------------11-11-11-11---------------11-11--13-13-----
G--12-12-12-12---------------------------------------------
D----------------------------------------------------------
A----------------------------------------------------------
E----------------------------------------------------------

Chorus (each hit 2 times)
e----------------------------------------------------------
B----------------------------------------------------------
G------------------------------------------8-8-8--x--8-8-8-
D--5-5-5--x--5-5-5--x--8-8-8--x--8-8-8--x--8-8-8--x--8-8-8-
A--5-5-5--x--5-5-5--x--8-8-8--x--8-8-8--x--6-6-6--x--6-6-6-
E--3-3-3--x--3-3-3--x--6-6-6--x--6-6-6--x------------------
("Once I ran to you...")

(continued)
e----------------------------------------------------------
B----------------------------------------------------------
G--x--5-5-5--x--5-5-5--x--5-5-5--x--5-5-5--x---------------
D--x--5-5-5--x--5-5-5--x--5-5-5--x--5-5-5--x---------------
A--x--3-3-3--x--3-3-3--x--3-3-3--x--3-3-3--x---------------
E----------------------------------------------------------

Riff 3
e-------------11-----------------------11------------------
B-------11---------11--13---------11--------11--13---------
G--12------------------------12----------------------------
D----------------------------------------------------------
A----------------------------------------------------------
E----------------------------------------------------------

Bridge
e----------------------------------------------------------
B----------4-----------------------------------------------
G--0---3-------3--3--5-------------------------------------
D----------------------------------------------------------
A----------------------------------------------------------
E----------------------------------------------------------

Outro
e----------------------------------------------------------
B----------------------------------------------------------
G----------------------------------------------------------
D--10---8----------------10---8----------------------------
A-----------10---10^\--------------------------------------
E----------------------------------------------------------

Riff 1
Verse, Riff 1, 2
Verse, Riff 1
Verse, Riff 3
Chorus
Verse, Riff 1, 2
Verse, Riff 1, 3
Chorus
Bridge, Verse
Bridge
Bridge, Verse, Riff 1
Verse, Riff 3
Chorus
Verse, Riff 1, 2, Outro

Most of the this song is synth. The only real guitar is in the Verse and Chorus part of the tab.


Back