web space | website hosting | Business WebSite Hosting | Free Website Submission | shopping cart | php hosting
Valentines Day

tabbed by origin x

Verse A (Guitar 1) (Three times then: )
e------------------|----------------------------------
B-----6---4---3-4--|-----6---4---3--------------------
G---4---4---4------|---4---4---4---4------------------
D-3----------------|-3--------------------------------
A------------------|----------------------------------
E------------------|----------------------------------
("She was the color of TV...")

Verse B (Guitar 2)
e-----------------------------------------------------
B-----------------------------------------------------
G-----------------------------------------------------
D-----------------3-3-3-3-3-3-3-3---------------------
A-2-2-2-2-2-2-2-2-4-4-4-4-4-4-4-4---------------------
E-1-1-1-1-1-1-1-1-------------------------------------

Pre-Chorus (all hit 8 times)
e-----------------------------------------------------
B-----------------------------------------------------
G--5---7---8---13-------------------------------------
D--x---x---x----x-------------------------------------
A--3---5---6---11-------------------------------------
E-----------------------------------------------------
("Flies are waiting...")

Chorus A (Guitar 1)
e-----------------------------------------------------
B-----------------------------------------------------
G-----------------------------------------------------
D-3--6--5-3----6-5-3--x-x---3--6--5-3-----6-5-3--x-x--
A-3--6--5-3----6-5-3--x-x---3--6--5-3-----6-5-3--x-x--
E-1--4--3-1----4-3-1--x-x---1--4--3-1-----4-3-1--x-x--
("In the shadow...")

Chorus A (continued)
e-----------------------------------------------------
B-----------------------------------------------------
G-3---6---------3---6---------------------------------
D-3---6---3-----3---6---------------------------------
A-1---4---3-----1---4---------------------------------
E---------1-------------------------------------------

Chorus B (Synthasizer arranged for Guitar 2)
e---4-1-3-4---4-1-3----4-1-3-4---4-1-3----------------
B-----------------------------------------------------
G-----------------------------------------------------
D-----------------------------------------------------
A-----------------------------------------------------
E-----------------------------------------------------

Chorus B (continued)
e---1-1---3-4---4-1-3-4---1-1---3-4-------------------
B-----------------------------------------------------
G-----------------------------------------------------
D-----------------------------------------------------
A-----------------------------------------------------
E-----------------------------------------------------

Chorus C (Guitar 2 or 3)
e-19^\----23^----22\----19^\----23^----22\------------
B-----------------------------------------------------
G-----------------------------------------------------
D-----------------------------------------------------
A-----------------------------------------------------
E-----------------------------------------------------

Verse A, B
Pre-Chorus
Chorus A, B
Verse A, B
Pre-Chorus
Chorus A, B
Chorus A, B, C



Back