web space | free hosting | Business WebSite Hosting | Free Website Submission | shopping cart | php hosting
Free webhosting
Wormboy

tabbed by origin x

Intro
e--------------------------------------------------------
B--------------------------------------------------------
G-4-4---------7-7--<7>--------4-4---------7-7------------
D-4-4---3-3---7-7--<7>-(x4)---4-4---3-3---7-7------------
A-2-2---3-3---5-5--<5>--------2-2---3-3---5-5------------
E-------1-1-------------------------1-1------------------

Riff A (Guitar 1)
e--------------------------------------------------------
B--------------------------------------------------------
G--------------------------------------------------------
D---------8^--------------------------8/9\8--------------
A------7------------7--10----------7-----------------7---
E-7h8----------7h8--------0---7h8------------7h8--10---0-

Riff B (Guitar 2)
e-7^p6---------------7^p6--------------------------------
B-7^-----------------7^----------------------------------
G----------4^\---------------7h9p7h9p7-------------------
D--------------------------------------------------------
A--------------------------------------------------------
E--------------------------------------------------------
Verse
e--------------------------------------------------------
B--------------------------------------------------------
G--------------------------------------------------------
D--------------------------------------------------------
A-5--7---------------5--7--------------------------------
E-------0--0----6\5--------0--0----5/6-------------------
("When will you realize..")

Chorus 1A (Guitar 1)
e--------------------------------------------------------
B--------------------------------------------------------
G-4-4-------7-7--2--3--4-4-------7-7--2--3---------------
D-4-4--3-3--7-7--2--3--4-4--3-3--7-7--2--3---------------
A-2-2--3-3--5-5--0--1--2-2--3-3--5-5--0--1---------------
E------1-1------------------1-1--------------------------
("I know...it is...")

Chorus 1B (Guitar 2)
e-7\5------------------7\5-------------------------------
B--------------------------------------------------------
G--------4^----7/9\7----------4^----7/9\7----------------
D--------------------------------------------------------
A--------------------------------------------------------
E--------------------------------------------------------

*Bridge
The bridge is played by interwieving a pick between the strings on the second fret and playing random notes.

Riff C (Guitar 3)
e-3--0-----0--6^----3--0-----0---------------------------
B-------1-----------------1------------------------------
G-------------------------------4^-----------------------
D--------------------------------------------------------
A--------------------------------------------------------
E--------------------------------------------------------

Chorus 2
e--------------------------------------------------------
B--------------------------------------------------------
G-4-4-------7-7--2--3---4-4--7-7-------10-10--9-9--------
D-4-4--3-3--7-7--2--3---4-4--7-7--7-7--10-10--9-9--------
A-2-2--3-3--5-5--0--1---2-2--5-5--7-7---8--8--7-7--------
E------1-1------------------------5-5--------------------

Intro
Riff A
Riff A, B Verse
Chorus 1A
Verse
Chorus 1A, 1B
Bridge
Riff A, B
Riff A, B, C
Chorus 2, 1B
Chorus 2, 1B, Riff C

This song has a lot of random notes that i didn't tab because they have no real part in the song.



Back