web space | free website | Business Web Hosting | Free Website Submission | shopping cart | php hosting
Tourniquet

tabbed by origin x

Pre-Chorus
e------------------1-----1^--------------------1-----1^-
B------------------------2^--------------------------2^-
G-3^----3--3/2-0-----0--------3^----3--3/2-0-----0------
D-------------------------------------------------------
A-------------------------------------------------------
E-------------------------------------------------------
Verse 1 (palm muted)
e-------------------------------------------------------
B-----------------------------2^---3--------------------
G-0---3---0---3---0---3---0-----------3-----------------
D-------------------------------------------------------
A-------------------------------------------------------
E-------------------------------------------------------
("She's made of hair...")

Chorus A (Guitar 1)
e-------------------------------------------------------
B-------------------------------------------------------
G-8-8-8----------------------8-8-8----------------------
D-8-8-8-8-8-8--5-5-3-3-5-5---8-8-8-8-8-8--5-5-3-3-5-5---
A-6-6-6-8-8-8--5-5-3-3-5-5---6-6-6-8-8-8--5-5-3-3-5-5---
E-------6-6-6--3-3-1-1-3-3---------6-6-6--3-3-1-1-3-3---
("Take you hatred...")

Chorus B (Guitar 2)
e-------------------------------------------------------
B-------------------------------------------------------
G-0-0-0-0-0-0-4/6-6-6-6-6-6-6---7-7-7h8p7-7-7--3-3-3^---
D-------------------------------------------------------
A-------------------------------------------------------
E-------------------------------------------------------

Riff
e-----15^-----------------------------------------------
B-14^------15-\14-\12---10--/12--------10--/12----------
G---------------------------------11--------------------
D-------------------------------------------------------
A-------------------------------------------------------
E-------------------------------------------------------

Verse 2 (clean and palm muted)
e-------------------------------------------------------
B-------------------------------------------------------
G-------------------------------------------------------
D-------------------------------------------------------
A-------------------------------------------------------
E-3-3-3-3-3-3--1-1--3-3-3-3-3-3-3-3---------------------
("Prosthetic synthesis...")

Bridge (Guitar 1 palm muted, Guitar 2 plays harmonics)
e-------------------------------------------------------
B-------------------------------------------------------
G-------------------------------------------------------
D-5-5-5-5-5-5--3-3--5-5-5-5-5-5--5----------------------
A-5-5-5-5-5-5--3-3--5-5-5-5-5-5--4----------------------
E-3-3-3-3-3-3--1-1--3-3-3-3-3-3-------------------------
("Well I wanted...")

Outro A (Guitar 1) Outro B (Guitar 2)
e----------------|--------------------------------------
B----------------|---3^---------------------------------
G----------------|--------------------------------------
D-5--------------|--------------------------------------
A-5-let ring-----|--------------------------------------
E-3--------------|--------------------------------------

Pre-Chorus
Verse 1
Pre-Chorus
Chorus A, B
Riff
Verse 2
Chorus A, B
Bridge
Chorus A, B
Pre-Chorus, Chorus A
Outro


Back