web space | website hosting | Business Hosting | Free Website Submission | shopping cart | php hosting
The Suck for Your Solution

tabbed by origin x
Dropped D tuning
<> = harmonics

Intro 1
e----------------------------------------------------------
B--<5>-(x13)------<5>-(x13)--------------------------------
G-------------6--------------6-----------------------------
D-------------6--------------6-----------------------------
A-------------4--------------4-----------------------------
E----------------------------------------------------------

Intro 2
e----------------------------------------------------------
B----------------------------------------------------------
G----------------------------------------------------------
D--13p12--0h12--0h12---13p12--0h12--0h12--0h10--0h12-------
A--13p12--0h12--0h12---13p12--0h12--0h12--0h10--0h12-------
D--13p12--0h12--0h12---13p12--0h12--0h12--0h10--0h12-------
(continued)
e----------------------------------------------------------
B----------------------------------------------------------
G----------------------------------------------------------
D--13p12--0h12--0h12---13p12--0h12--0h12-------------------
A--13p12--0h12--0h12---13p12--0h12--0h12---10^-------------
D--13p12--0h12--0h12---13p12--0h12--0h12-------------------
Fill                  Verse 1
e--------------------|-------------------------------------
B--------------------|-------------------------------------
G--------------------|-------------------------------------
D--0----6---5---5^---|-------------5^---------------5^-----
A--0----6---5--------|--5---------------5------------------
D--0----6---5--------|-----6^7--5-----------6^7--5---------

Chorus A (Guitar 1)      end on
e--------------------------|-------------------------------
B--------------------------|-------------------------------
G--3---3---5---5---7---7^--|--3---3---5---5----------------
D--3---3---5---5---7---7^--|--3---3---5---5----------------
A--1---1---3---3---5---5^--|--1---1---3---3----------------
D--------------------------|-------------------------------

Chorus B (Guitar 2)      end on
e--13--------13---15---15^-|--13-------13--15--------------
B-------15-----------------|-------15----------------------
G--------------------------|-------------------------------
D--------------------------|-------------------------------
A--------------------------|-------------------------------
D--------------------------|-------------------------------

Post-Chorus
e----------------------------------------------------------
B----------------------------------------------------------
G----------------------------------------------------------
D--13p12--0h12--0h12---13p12--0h12--0h12-------------------
A--13p12--0h12--0h12---13p12--0h12--0h12---10^-------------
D--13p12--0h12--0h12---13p12--0h12--0h12-------------------

Verse 2
e----------------------------------------------------------
B----------------------------------------------------------
G----------------------------------------------------------
D--0----6----5----6----5^----0----6----5----6----5^--------
A--0----6----5----6----------0----6----5----6--------------
D--0----6----5----6----------0----6----5----6--------------

Intro 1
Intro 2
Fill
Verse
Intro 1
Chorus A. B
Post-Chorus
Verse 2
Verse 1
Intro 1
Chorus A, B
Post-Chorus
Chorus A, B
Post-Chorus
Post-Chorus, Verse 1



Back