web space | website hosting | Business Web Hosting | Free Website Submission | shopping cart | php hosting
The Reflecting God

tabbed by origin x

Bass-Verse
G-------------------------------------------------------
D---------2----------------0---3------------------------
A-------------------------------------------------------
E-0-0-0-0---0----0-0-0-0--------------------------------

Riff 1
e-------------------------------------------------------
B-------------------------------------------------------
G-10-9-7-9---10-9-7-13^---10-9-7-9---10-9-7-13^---------
D--x-x-x-x----x-x-x--x-----x-x-x-x----x-x-x--x----------
A--8-7-5-7----8-7-5-11^----8-7-5-7----8-7-5-11----------
E-------------------------------------------------------

Verse 1
e-------------------------------------------------------
B-9--9----9----9--9----9--9---9---9-9-------------------
G-------------------------------------------------------
D-------------------------------------------------------
A-------------------------------------------------------
E-------------------------------------------------------
("The nature of the leeches...")

Verse 2 (each hit 8 times)
e----------|--------------------------------------------
B-12-12-12-|--------------------------------------------
G----------|-9-9-9------7--9-9---9-9-9------7--9-9------
D----------|-9-9-9--10--7--9-9---9-9-9--10--7--9-9------
A----------|-7-7-7--10--5--7-7---7-7-7--10--5--7-7------
E----------|---------8-------------------8--------------
("My world is unaffected...")

Pre-Chorus
e--8------5-------0-------8------5-------0--------------
B--8------5-------0-------8------5-------0--------------
G--9------6-------0-------9------6-------0--------------
D-10------7----8--2------10------7----8--2--------------
A-10------7----8--2------10------7----8--2--------------
E--8------5----6--0-------8------5----6--0--------------
("I went to God just to see...")

Chorus
e-------------------------------------------------------
B-------------------------------------------------------
G-------------------------------------------------------
D-2---2---8-8-8-7-7-5---4-2---2---8-8-8-7-7-5-----------
A-2---2---8-8-8-7-7-5---4-2---2---8-8-8-7-7-5-----------
E-0---0---6-6-6-5-5-3---2-0---0---6-6-6-5-5-3-----------
("Scar scar can you feel my power...")

Riff 2
e-------------------------------------------------------
B-------------------------------------------------------
G-------------------------------------------------------
D-7^-7---7^-7---7^-7---7^-7---7^-7--5--2----------------
A-7^-7---7^-7---7^-7---7^-7---7^-7--5--2----------------
E-5^-0---5^-0---5^-0---5^-0---5^-0--3--0----------------

Fill
e-------------------------------------------------------
B-------------------------------------------------------
G-------------------------------------------------------
D-2------2------2------2--------------------------------
A-2------2------2------2--------------------------------
E-0------0------0------0--------------------------------
("Each thing I show you...")

Bass-Bridge
G-------------------------------------------------------
D-2-2-2--3-3-3--2-2-2--3-3-3--2-2-0---------------------
A-------------------------------------------------------
E-------------------------------------------------------
("No salvation...")

Bridge 1
e-------------------------------------------------------
B-------------------------------------------------------
G-9--------10--9--7----9--------10--9--7----------------
D-x-(x14)---x--x--x----x-(x14)---x--x--x----------------
A-7---------8--7--5----7---------8--7--5----------------
E-------------------------------------------------------

Bridge 2
e----------14^---------------------14^------------------
B-----------x-----------------------x-------------------
G-9-9-9-9--11^--9-9-9-9---9-9-9-9--11^--9-9-9-9---------
D-x-x-x-x-------x-x-x-x---x-x-x-x-------x-x-x-x---------
A-7-7-7-7-------7-7-7-7---7-7-7-7-------7-7-7-7---------
E-------------------------------------------------------

Pre-Chorus 2A (Guitar 1, each stummed 4 times)
e-0----0----0----0-----0----0----0----0-----------------
B-1----1----0----3-----1----1----0----3-----------------
G-0----2----0----0-----0----2----0----0-----------------
D-2----2----2----2-----2----2----2----2-----------------
A-3----0----2----2-----3----0----2----2-----------------
E-----------0----0---------------0----0-----------------

Pre-Chorus 2B (Synthasizer arranged for Guitar 2)
e------------------------4-------------5----------------
B-6--5--3--5----6--5--3-------6--5--3-------------------
G-------------------------------------------------------
D-------------------------------------------------------
A-------------------------------------------------------
E-------------------------------------------------------

Bass-Verse
Bass-Verse, Riff 1
Bass-Verse, Verse 1
Bass-Verse, Verse 2
Pre-Chorus 1
Chorus
Riff 2
Verse 1
Verse 2
Pre-Chorus 1
Fill
Bass-Bridge
Bass-Bridge, Bridge 1
Bass-Bridge, Bridge 2
Pre-Chorus 2A
Pre-Chorus 2A, 2B
Chorus



Back