web space | free website | Web Hosting | Free Website Submission | shopping cart | php hosting
Mister Superstar

tabbed by origin x

Intro
e------------------------------------------------------
B------------------------------------------------------
G------------------------------------------------------
D-9----9-9-0--5---5---5--5-5-0--7---7---7-7-0--9-------
A-7----7-7-0--3---3---3--3-3-0--5---5---5-5-0--7-------
E-0----0-0-0--0---0---0--0-0-0--0---0---0-0-0--0-------

Verse A
e------------------------------------------------------
B------------------------------------------------------
G------------------------------------------------------
D-7-------9--------7-------9---------------------------
A-5-(x3)--7-(x12)--5-(x3)--7-(x12)---------------------
E-0-------0--------0-------0---------------------------
("Hey mister superstar...")

Chorus A (Guitar1, extremely heavy distortion) End on
e----------------------------------------------|-------
B----------------------------------------------|-------
G----------------------------------9-9-9-9^--9-|-------
D-9-------5-------7-------*9-------------------|---9---
A-7-(x16)-3-(x16)-5-(x16)-*7-(x14)-------------|---7---
E-0-------0-------0-------*0-------------------|---0---
*palm muted

Break A (Guitar 2)
e-19--18----------19--18-------------------------------
B---------19\17-----------19\17------------------------
G------------------------------------------------------
D------------------------------------------------------
A------------------------------------------------------
E------------------------------------------------------

Chorus B
e------------------------------------------------------
B------------------------------------------------------
G--------------9------------9--------11-12--9----------
D-9-------4-5--x-(x12)-4-5--x-(x12)---x--x--x-(x16)----
A-7-(x12)-x-x--7-------x-x--7---------9-10--7----------
E-0-------2-3----------2-4-----------------------------

Break B (Guitar 1, palm muted)
e------------------------------------------------------
B------------------------------------------------------
G------------------------------------------------------
D-9-9-9---9-9-9---9-9-9---9-9-9------------------------
A-7-7-7---7-7-7---7-7-7---7-7-7------------------------
E-0-0-0---0-0-0---0-0-0---0-0-0------------------------

Outro A (Guitar 2)
e------------------------------------------------------
B------------------------------------------------------
G------------------------------------------------------
D-9-------x-------9-------7-7-9-9-x-x------------------
A-7-(x4)--x-(x4)--7-(x3)--5-5-7-7-x-x------------------
E-0-------x-------0-------0-0-0-0-x-x------------------

Outro B (Guitar 3)
e------------------------------------------------------
B------------------------------------------------------
G-9-9---9-9---9-9---11-12-11-9-------------------------
D-9-9---9-9---9-9---11-12-11-9-------------------------
A-7-7---7-7---7-7----9-10--9-7-------------------------
E------------------------------------------------------

Outro C (Guitar 4)
e---------------10^------------------10^---------------
B-12\11---10\9--------12\11---10\9---------------------
G------------------------------------------------------
D------------------------------------------------------
A------------------------------------------------------
E------------------------------------------------------

Intro
Verse A
Verse A (two guitars)
Chorus A
Break A
Verse A (two guitars)
Chorus A
Chorus A, B
Break A
Break A, B
Verse A, Outro A
Verse A, Outro A, B
Verse A, Outro A, B, C

I've seen way too many bad tabs of this song, so I thought I'd do it justice. There are a lot of distortion effects, guessing...Trent. One part at the end has the guitars being layered, and there's a time when 4 guitars are playing.



Back