web space | free website | Business Hosting | Free Website Submission | shopping cart | php hosting
The Minute of Decay

tabbed by origin x

Bass-Verse
G-------------------------------------------------------
D-------------------------------------------------------
A-0-0-0-0--3-3-3-3--2-3-2-------------------------------
E-------------------------------------------------------
("There's not much left to leave...")

Verse
e-8-8-8-8--5-5-5-7---7-7-7-7-7-7-7----------------------
B-------------------------------------------------------
G-------------------------------------------------------
D-------------------------------------------------------
A-------------------------------------------------------
E-------------------------------------------------------
("I'm on my way down now...")

Chorus 1 end on
e---------------------0-0-0-0-0-0---|-------------1-----
B---------------------0-0-0-0-0-0---|-------------1-----
G------------------2--2-2-2-2-2-2---|-------------------
D-5-5-5-5-5-5-5-5--2----------------|-5-------3---------
A-5-5-5-5-5-5-5-5--0----------------|-5-(x8)--3---------
E-3-3-3-3-3-3-3-3-------------------|-3-------1---------
("The minute that it's born...")

Riff (piano arranged for guitar with delay)
e------6----3----5---------6----3----5------------------
B-5-------------------5---------------------------------
G-------------------------------------------------------
D-------------------------------------------------------
A-------------------------------------------------------
E-------------------------------------------------------

Chorus 2 end on
e-----------------------------------|-------------------
B-----------------------------------|-------------------
G------------------2--2-2-2-2-2-2---|-------------------
D-5-5-5-5-5-5-5-5--2--2-2-2-2-2-2---|-5-------3---------
A-5-5-5-5-5-5-5-5--0--0-0-0-0-0-0---|-5-(x8)--3---------
E-3-3-3-3-3-3-3-3-------------------|-3-------1---------

Bridge 1
e-------------------------------------------------------
B-------------------------------------------------------
G-------------------------------------------------------
D-2-----3-----2-----3-----2-----3-----2-----3-----------
A-2-----3-----2-----3-----2-----3-----2-----3-----------
E-0-----1-----0-----1-----0-----1-----0-----1-----------
("I'd love to live this lie...")

Bridge 2 (synthasizer arranged for guitar)
e-------------------------------------------------------
B-------------------------------------------------------
G-10-10-10-10--7-7-7--9---10-10-10-10--7-7-7--9---------
D-10-10-10-10--7-7-7--9---10-10-10-10--7-7-7--9---------
A--8--8--8--8--5-5-5--7----8--8--8--8--5-5-5--7---------
E-------------------------------------------------------

Bass-Intro
Bass-Intro, Verse
Chorus 1
Bass-Verse, Riff
Bass-Verse
Bass-Verse, Verse
Chorus 2
Bridge 1, Riff
Bridge 2, Riff
Chorus 2
Bass-Verse, Riff
Riff


Back